  0
SECTION
  2
HEADER
  9
$ACADVER
  1
AC1015
  9
$ACADMAINTVER
 70
     6
  9
$DWGCODEPAGE
  3
ANSI_1254
  9
$INSBASE
 10
0.0
 20
0.0
 30
0.0
  9
$EXTMIN
 10
0.0
 20
0.0
 30
0.0
  9
$EXTMAX
 10
279.4
 20
215.9
 30
0.0
  9
$LIMMIN
 10
0.0
 20
0.0
  9
$LIMMAX
 10
279.4
 20
215.9
  9
$ORTHOMODE
 70
     0
  9
$REGENMODE
 70
     1
  9
$FILLMODE
 70
     1
  9
$QTEXTMODE
 70
     0
  9
$MIRRTEXT
 70
     1
  9
$LTSCALE
 40
1.0
  9
$ATTMODE
 70
     1
  9
$TEXTSIZE
 40
3.5
  9
$TRACEWID
 40
1.0
  9
$TEXTSTYLE
  7
Standard
  9
$CLAYER
  8
0
  9
$CELTYPE
  6
ByLayer
  9
$CECOLOR
 62
   256
  9
$CELTSCALE
 40
1.0
  9
$DISPSILH
 70
     0
  9
$DIMSCALE
 40
1.0
  9
$DIMASZ
 40
3.5
  9
$DIMEXO
 40
1.0
  9
$DIMDLI
 40
3.75
  9
$DIMRND
 40
0.0
  9
$DIMDLE
 40
0.0
  9
$DIMEXE
 40
1.0
  9
$DIMTP
 40
0.0
  9
$DIMTM
 40
0.0
  9
$DIMTXT
 40
3.5
  9
$DIMCEN
 40
2.5
  9
$DIMTSZ
 40
0.0
  9
$DIMTOL
 70
     0
  9
$DIMLIM
 70
     0
  9
$DIMTIH
 70
     1
  9
$DIMTOH
 70
     1
  9
$DIMSE1
 70
     0
  9
$DIMSE2
 70
     0
  9
$DIMTAD
 70
     1
  9
$DIMZIN
 70
     0
  9
$DIMBLK
  1

  9
$DIMASO
 70
     1
  9
$DIMSHO
 70
     1
  9
$DIMPOST
  1

  9
$DIMAPOST
  1

  9
$DIMALT
 70
     0
  9
$DIMALTD
 70
     3
  9
$DIMALTF
 40
0.0393700787
  9
$DIMLFAC
 40
1.0
  9
$DIMTOFL
 70
     1
  9
$DIMTVP
 40
0.0
  9
$DIMTIX
 70
     0
  9
$DIMSOXD
 70
     0
  9
$DIMSAH
 70
     0
  9
$DIMBLK1
  1

  9
$DIMBLK2
  1

  9
$DIMSTYLE
  2
ISO-25
  9
$DIMCLRD
 70
     0
  9
$DIMCLRE
 70
     0
  9
$DIMCLRT
 70
     0
  9
$DIMTFAC
 40
1.0
  9
$DIMGAP
 40
1.524
  9
$DIMJUST
 70
     0
  9
$DIMSD1
 70
     0
  9
$DIMSD2
 70
     0
  9
$DIMTOLJ
 70
     0
  9
$DIMTZIN
 70
     0
  9
$DIMALTZ
 70
     0
  9
$DIMALTTZ
 70
     0
  9
$DIMUPT
 70
     0
  9
$DIMDEC
 70
     2
  9
$DIMTDEC
 70
     2
  9
$DIMALTU
 70
     2
  9
$DIMALTTD
 70
     3
  9
$DIMTXSTY
  7
Standard
  9
$DIMAUNIT
 70
     0
  9
$DIMADEC
 70
     2
  9
$DIMALTRND
 40
0.0
  9
$DIMAZIN
 70
     0
  9
$DIMDSEP
 70
    44
  9
$DIMATFIT
 70
     3
  9
$DIMFRAC
 70
     0
  9
$DIMLDRBLK
  1

  9
$DIMLUNIT
 70
     2
  9
$DIMLWD
 70
    -2
  9
$DIMLWE
 70
    -2
  9
$DIMTMOVE
 70
     0
  9
$LUNITS
 70
     2
  9
$LUPREC
 70
     2
  9
$SKETCHINC
 40
1.0
  9
$FILLETRAD
 40
10.0
  9
$AUNITS
 70
     0
  9
$AUPREC
 70
     2
  9
$MENU
  1
.
  9
$ELEVATION
 40
0.0
  9
$PELEVATION
 40
0.0
  9
$THICKNESS
 40
0.0
  9
$LIMCHECK
 70
     0
  9
$CHAMFERA
 40
0.0
  9
$CHAMFERB
 40
0.0
  9
$CHAMFERC
 40
0.0
  9
$CHAMFERD
 40
0.0
  9
$SKPOLY
 70
     0
  9
$TDCREATE
 40
2459741.614478831
  9
$TDUCREATE
 40
2459741.489478831
  9
$TDUPDATE
 40
2459741.614479085
  9
$TDUUPDATE
 40
2459741.489479085
  9
$TDINDWG
 40
0.0000000116
  9
$TDUSRTIMER
 40
0.0000000116
  9
$USRTIMER
 70
     1
  9
$ANGBASE
 50
0.0
  9
$ANGDIR
 70
     0
  9
$PDMODE
 70
     0
  9
$PDSIZE
 40
-1.0
  9
$PLINEWID
 40
0.0
  9
$SPLFRAME
 70
     0
  9
$SPLINETYPE
 70
     6
  9
$SPLINESEGS
 70
     8
  9
$HANDSEED
  5
146
  9
$SURFTAB1
 70
     6
  9
$SURFTAB2
 70
     6
  9
$SURFTYPE
 70
     6
  9
$SURFU
 70
     6
  9
$SURFV
 70
     6
  9
$UCSBASE
  2

  9
$UCSNAME
  2

  9
$UCSORG
 10
0.0
 20
0.0
 30
0.0
  9
$UCSXDIR
 10
1.0
 20
0.0
 30
0.0
  9
$UCSYDIR
 10
0.0
 20
1.0
 30
0.0
  9
$UCSORTHOREF
  2

  9
$UCSORTHOVIEW
 70
     0
  9
$UCSORGTOP
 10
0.0
 20
0.0
 30
0.0
  9
$UCSORGBOTTOM
 10
0.0
 20
0.0
 30
0.0
  9
$UCSORGLEFT
 10
0.0
 20
0.0
 30
0.0
  9
$UCSORGRIGHT
 10
0.0
 20
0.0
 30
0.0
  9
$UCSORGFRONT
 10
0.0
 20
0.0
 30
0.0
  9
$UCSORGBACK
 10
0.0
 20
0.0
 30
0.0
  9
$PUCSBASE
  2

  9
$PUCSNAME
  2

  9
$PUCSORG
 10
0.0
 20
0.0
 30
0.0
  9
$PUCSXDIR
 10
1.0
 20
0.0
 30
0.0
  9
$PUCSYDIR
 10
0.0
 20
1.0
 30
0.0
  9
$PUCSORTHOREF
  2

  9
$PUCSORTHOVIEW
 70
     0
  9
$PUCSORGTOP
 10
0.0
 20
0.0
 30
0.0
  9
$PUCSORGBOTTOM
 10
0.0
 20
0.0
 30
0.0
  9
$PUCSORGLEFT
 10
0.0
 20
0.0
 30
0.0
  9
$PUCSORGRIGHT
 10
0.0
 20
0.0
 30
0.0
  9
$PUCSORGFRONT
 10
0.0
 20
0.0
 30
0.0
  9
$PUCSORGBACK
 10
0.0
 20
0.0
 30
0.0
  9
$USERI1
 70
     0
  9
$USERI2
 70
     0
  9
$USERI3
 70
     0
  9
$USERI4
 70
     0
  9
$USERI5
 70
     0
  9
$USERR1
 40
0.0
  9
$USERR2
 40
0.0
  9
$USERR3
 40
0.0
  9
$USERR4
 40
0.0
  9
$USERR5
 40
0.0
  9
$WORLDVIEW
 70
     1
  9
$SHADEDGE
 70
     3
  9
$SHADEDIF
 70
    70
  9
$TILEMODE
 70
     1
  9
$MAXACTVP
 70
    64
  9
$PINSBASE
 10
0.0
 20
0.0
 30
0.0
  9
$PLIMCHECK
 70
     0
  9
$PEXTMIN
 10
1.0000000000E+20
 20
1.0000000000E+20
 30
1.0000000000E+20
  9
$PEXTMAX
 10
-1.0000000000E+20
 20
-1.0000000000E+20
 30
-1.0000000000E+20
  9
$PLIMMIN
 10
0.0
 20
0.0
  9
$PLIMMAX
 10
420.0
 20
297.0
  9
$UNITMODE
 70
     0
  9
$VISRETAIN
 70
     1
  9
$PLINEGEN
 70
     0
  9
$PSLTSCALE
 70
     1
  9
$TREEDEPTH
 70
  3020
  9
$CMLSTYLE
  2
Standard
  9
$CMLJUST
 70
     0
  9
$CMLSCALE
 40
20.0
  9
$PROXYGRAPHICS
 70
     1
  9
$MEASUREMENT
 70
     1
  9
$CELWEIGHT
370
    -1
  9
$ENDCAPS
280
     0
  9
$JOINSTYLE
280
     0
  9
$LWDISPLAY
290
     1
  9
$INSUNITS
 70
     4
  9
$HYPERLINKBASE
  1

  9
$STYLESHEET
  1

  9
$XEDIT
290
     1
  9
$CEPSNTYPE
380
     0
  9
$PSTYLEMODE
290
     1
  9
$FINGERPRINTGUID
  2
{c002cc5f-55d4-47b5-a5b5-751439e27932}
  9
$VERSIONGUID
  2
{FAEB1C32-E019-11D5-929B-00C0DF256EC4}
  9
$EXTNAMES
290
     1
  9
$PSVPSCALE
 40
0.0
  9
$OLESTARTUP
290
     0
  0
ENDSEC
  0
SECTION
  2
CLASSES
  0
CLASS
  1
ACDBDICTIONARYWDFLT
  2
AcDbDictionaryWithDefault
  3
ObjectDBX Classes
 90
        0
280
     0
281
     0
  0
CLASS
  1
VISUALSTYLE
  2
AcDbVisualStyle
  3
ObjectDBX Classes
 90
     4095
280
     0
281
     0
  0
CLASS
  1
MATERIAL
  2
AcDbMaterial
  3
ObjectDBX Classes
 90
     1153
280
     0
281
     0
  0
CLASS
  1
SCALE
  2
AcDbScale
  3
ObjectDBX Classes
 90
     1153
280
     0
281
     0
  0
CLASS
  1
TABLESTYLE
  2
AcDbTableStyle
  3
ObjectDBX Classes
 90
     4095
280
     0
281
     0
  0
CLASS
  1
MLEADERSTYLE
  2
AcDbMLeaderStyle
  3
ACDB_MLEADERSTYLE_CLASS
 90
     4095
280
     0
281
     0
  0
CLASS
  1
SUN
  2
AcDbSun
  3
SCENEOE
 90
     1153
280
     0
281
     0
  0
CLASS
  1
ACDBPLACEHOLDER
  2
AcDbPlaceHolder
  3
ObjectDBX Classes
 90
        0
280
     0
281
     0
  0
CLASS
  1
LAYOUT
  2
AcDbLayout
  3
ObjectDBX Classes
 90
        0
280
     0
281
     0
  0
ENDSEC
  0
SECTION
  2
TABLES
  0
TABLE
  2
VPORT
  5
8
330
0
100
AcDbSymbolTable
 70
     1
  0
VPORT
  5
29
330
8
100
AcDbSymbolTableRecord
100
AcDbViewportTableRecord
  2
*Active
 70
     0
 10
0.0
 20
0.0
 11
1.0
 21
1.0
 12
139.7
 22
107.95
 13
0.0
 23
0.0
 14
10.0
 24
10.0
 15
10.0
 25
10.0
 16
0.0
 26
0.0
 36
1.0
 17
0.0
 27
0.0
 37
0.0
 40
215.9
 41
1.2941176471
 42
50.0
 43
0.0
 44
0.0
 50
0.0
 51
0.0
 71
     0
 72
  2000
 73
     1
 74
     3
 75
     0
 76
     0
 77
     0
 78
     0
281
     0
 65
     1
110
0.0
120
0.0
130
0.0
111
1.0
121
0.0
131
0.0
112
0.0
122
1.0
132
0.0
 79
     0
146
0.0
  0
ENDTAB
  0
TABLE
  2
LTYPE
  5
5
330
0
100
AcDbSymbolTable
 70
     6
  0
LTYPE
  5
14
330
5
100
AcDbSymbolTableRecord
100
AcDbLinetypeTableRecord
  2
ByBlock
 70
     0
  3

 72
    65
 73
     0
 40
0.0
  0
LTYPE
  5
15
330
5
100
AcDbSymbolTableRecord
100
AcDbLinetypeTableRecord
  2
ByLayer
 70
     0
  3

 72
    65
 73
     0
 40
0.0
  0
LTYPE
  5
16
330
5
100
AcDbSymbolTableRecord
100
AcDbLinetypeTableRecord
  2
Continuous
 70
     0
  3
Solid line
 72
    65
 73
     0
 40
0.0
  0
LTYPE
  5
6E
330
5
100
AcDbSymbolTableRecord
100
AcDbLinetypeTableRecord
  2
HIDDEN
 70
     0
  3
Hidden __ __ __ __ __ __ __ __ __ __ __ __ __ __
 72
    65
 73
     2
 40
1.905
 49
1.27
 74
     0
 49
-0.635
 74
     0
  0
LTYPE
  5
6F
330
5
100
AcDbSymbolTableRecord
100
AcDbLinetypeTableRecord
  2
PHANTOM
 70
     0
  3
Phantom ______  __  __  ______  __  __  ______
 72
    65
 73
     6
 40
12.7
 49
6.35
 74
     0
 49
-1.27
 74
     0
 49
1.27
 74
     0
 49
-1.27
 74
     0
 49
1.27
 74
     0
 49
-1.27
 74
     0
  0
LTYPE
  5
70
330
5
100
AcDbSymbolTableRecord
100
AcDbLinetypeTableRecord
  2
CENTER
 70
     0
  3
Center ____ _ ____ _ ____ _ ____ _ ____ _ ____
 72
    65
 73
     4
 40
10.16
 49
6.35
 74
     0
 49
-1.27
 74
     0
 49
1.27
 74
     0
 49
-1.27
 74
     0
  0
LTYPE
  5
71
330
5
100
AcDbSymbolTableRecord
100
AcDbLinetypeTableRecord
  2
CENTERX2
 70
     0
  3
Center (2x) ________  __  ________  __  _____
 72
    65
 73
     4
 40
20.32
 49
12.7
 74
     0
 49
-2.54
 74
     0
 49
2.54
 74
     0
 49
-2.54
 74
     0
  0
LTYPE
  5
72
330
5
100
AcDbSymbolTableRecord
100
AcDbLinetypeTableRecord
  2
DOT2
 70
     0
  3
Dot (.5x) ........................................
 72
    65
 73
     2
 40
0.635
 49
0.0
 74
     0
 49
-0.635
 74
     0
  0
ENDTAB
  0
TABLE
  2
LAYER
  5
2
330
0
100
AcDbSymbolTable
 70
    17
  0
LAYER
  5
10
330
2
100
AcDbSymbolTableRecord
100
AcDbLayerTableRecord
  2
0
 70
     0
 62
     7
  6
Continuous
370
    -3
390
F
  0
LAYER
  5
73
330
2
100
AcDbSymbolTableRecord
100
AcDbLayerTableRecord
  2
FORMAT
 70
     0
 62
     7
  6
Continuous
370
    -3
390
F
  0
LAYER
  5
74
330
2
100
AcDbSymbolTableRecord
100
AcDbLayerTableRecord
  2
YARDIMCI_GEOMETRI
 70
     0
 62
    -6
  6
Continuous
290
     0
370
    -3
390
F
  0
LAYER
  5
75
330
2
100
AcDbSymbolTableRecord
100
AcDbLayerTableRecord
  2
SAYFA_CERCEVESI
 70
     0
 62
     7
  6
Continuous
370
    25
390
F
  0
LAYER
  5
76
330
2
100
AcDbSymbolTableRecord
100
AcDbLayerTableRecord
  2
ANTET
 70
     0
 62
     7
  6
Continuous
370
    -3
390
F
  0
LAYER
  5
77
330
2
100
AcDbSymbolTableRecord
100
AcDbLayerTableRecord
  2
OLCU
 70
     0
 62
   150
  6
Continuous
370
    -3
390
F
  0
LAYER
  5
78
330
2
100
AcDbSymbolTableRecord
100
AcDbLayerTableRecord
  2
METIN
 70
     0
 62
    96
  6
Continuous
370
    -3
390
F
  0
LAYER
  5
79
330
2
100
AcDbSymbolTableRecord
100
AcDbLayerTableRecord
  2
BALON
 70
     0
 62
     5
  6
Continuous
370
    -3
390
F
  0
LAYER
  5
7A
330
2
100
AcDbSymbolTableRecord
100
AcDbLayerTableRecord
  2
VURGU
 70
     0
 62
     7
  6
Continuous
370
    -3
390
F
  0
LAYER
  5
7B
330
2
100
AcDbSymbolTableRecord
100
AcDbLayerTableRecord
  2
SILIK
 70
     0
 62
     7
  6
Continuous
370
    -3
390
F
  0
LAYER
  5
7C
330
2
100
AcDbSymbolTableRecord
100
AcDbLayerTableRecord
  2
MODEL
 70
     0
 62
     7
  6
Continuous
370
    -3
390
F
  0
LAYER
  5
7D
330
2
100
AcDbSymbolTableRecord
100
AcDbLayerTableRecord
  2
DETAYLANDıRMA
 70
     0
 62
   190
  6
Continuous
370
    -3
390
F
  0
LAYER
  5
7E
330
2
100
AcDbSymbolTableRecord
100
AcDbLayerTableRecord
  2
TOLERANS
 70
     0
 62
   230
  6
Continuous
370
    -3
390
F
  0
LAYER
  5
7F
330
2
100
AcDbSymbolTableRecord
100
AcDbLayerTableRecord
  2
MERKEZ_CIZGILERI
 70
     0
 62
    30
  6
Continuous
370
    -3
390
F
  0
LAYER
  5
80
330
2
100
AcDbSymbolTableRecord
100
AcDbLayerTableRecord
  2
KESIT-DETAY_CIZGILERI
 70
     0
 62
     7
  6
Continuous
370
    -3
390
F
  0
LAYER
  5
81
330
2
100
AcDbSymbolTableRecord
100
AcDbLayerTableRecord
  2
\U+041E\U+0421\U+0415\U+0412\U+042B\U+0415
 70
     0
 62
     7
  6
Continuous
370
    -3
390
F
  0
LAYER
  5
82
330
2
100
AcDbSymbolTableRecord
100
AcDbLayerTableRecord
  2
\U+0412\U+041E\U+0414\U+042F\U+041D\U+042B\U+0415_\U+0417\U+041D\U+0410\U+041A\U+0418
 70
     0
 62
    11
  6
Continuous
370
    -3
390
F
  0
ENDTAB
  0
TABLE
  2
STYLE
  5
3
330
0
100
AcDbSymbolTable
 70
     1
  0
STYLE
  5
11
330
3
100
AcDbSymbolTableRecord
100
AcDbTextStyleTableRecord
  2
Standard
 70
     0
 40
0.0
 41
1.0
 50
0.0
 71
     0
 42
3.5
  3
txt
  4

  0
ENDTAB
  0
TABLE
  2
VIEW
  5
6
330
0
100
AcDbSymbolTable
 70
     0
  0
ENDTAB
  0
TABLE
  2
UCS
  5
7
330
0
100
AcDbSymbolTable
 70
     0
  0
ENDTAB
  0
TABLE
  2
APPID
  5
9
330
0
100
AcDbSymbolTable
 70
     1
  0
APPID
  5
12
330
9
100
AcDbSymbolTableRecord
100
AcDbRegAppTableRecord
  2
ACAD
 70
     0
  0
ENDTAB
  0
TABLE
  2
DIMSTYLE
  5
A
330
0
100
AcDbSymbolTable
 70
     1
100
AcDbDimStyleTable
  0
DIMSTYLE
105
27
330
A
100
AcDbSymbolTableRecord
100
AcDbDimStyleTableRecord
  2
ISO-25
 70
     0
 41
2.5
 42
0.625
 43
3.75
 44
1.25
 73
     0
 74
     0
 77
     1
 78
     8
140
2.5
141
2.5
143
0.0393700787
147
0.625
171
     3
172
     1
178
     0
271
     2
272
     2
274
     3
278
    44
283
     0
284
     8
340
11
  0
ENDTAB
  0
TABLE
  2
BLOCK_RECORD
  5
1
330
0
100
AcDbSymbolTable
 70
     5
  0
BLOCK_RECORD
  5
1F
330
1
100
AcDbSymbolTableRecord
100
AcDbBlockTableRecord
  2
*Model_Space
340
22
  0
BLOCK_RECORD
  5
1B
330
1
100
AcDbSymbolTableRecord
100
AcDbBlockTableRecord
  2
*Paper_Space
340
1E
  0
BLOCK_RECORD
  5
23
330
1
100
AcDbSymbolTableRecord
100
AcDbBlockTableRecord
  2
*Paper_Space0
340
26
  0
BLOCK_RECORD
  5
C8
330
1
100
AcDbSymbolTableRecord
100
AcDbBlockTableRecord
  2
SW_CENTERMARKSYMBOL_0
340
0
102
{BLKREFS
331
D3
102
}
  0
BLOCK_RECORD
  5
F3
330
1
100
AcDbSymbolTableRecord
100
AcDbBlockTableRecord
  2
SW_CENTERMARKSYMBOL_1
340
0
102
{BLKREFS
331
FE
102
}
  0
BLOCK_RECORD
  5
FF
330
1
100
AcDbSymbolTableRecord
100
AcDbBlockTableRecord
  2
SW_CENTERMARKSYMBOL_2
340
0
102
{BLKREFS
331
10A
102
}
  0
BLOCK_RECORD
  5
10B
330
1
100
AcDbSymbolTableRecord
100
AcDbBlockTableRecord
  2
SW_CENTERMARKSYMBOL_3
340
0
102
{BLKREFS
331
116
102
}
  0
ENDTAB
  0
ENDSEC
  0
SECTION
  2
BLOCKS
  0
BLOCK
  5
20
330
1F
100
AcDbEntity
  8
0
100
AcDbBlockBegin
  2
*Model_Space
 70
     0
 10
0.0
 20
0.0
 30
0.0
  3
*Model_Space
  1

  0
ENDBLK
  5
21
330
1F
100
AcDbEntity
  8
0
100
AcDbBlockEnd
  0
BLOCK
  5
1C
330
1B
100
AcDbEntity
 67
     1
  8
0
100
AcDbBlockBegin
  2
*Paper_Space
 70
     0
 10
0.0
 20
0.0
 30
0.0
  3
*Paper_Space
  1

  0
ENDBLK
  5
1D
330
1B
100
AcDbEntity
 67
     1
  8
0
100
AcDbBlockEnd
  0
BLOCK
  5
24
330
23
100
AcDbEntity
  8
0
100
AcDbBlockBegin
  2
*Paper_Space0
 70
     0
 10
0.0
 20
0.0
 30
0.0
  3
*Paper_Space0
  1

  0
ENDBLK
  5
25
330
23
100
AcDbEntity
  8
0
100
AcDbBlockEnd
  0
BLOCK
  5
C9
330
C8
100
AcDbEntity
  8
0
100
AcDbBlockBegin
  2
SW_CENTERMARKSYMBOL_0
 70
     0
 10
0.0
 20
0.0
 30
0.0
  3
SW_CENTERMARKSYMBOL_0
  1

  0
LINE
  5
CB
330
C8
100
AcDbEntity
  8
FORMAT
 62
     0
100
AcDbLine
 10
0.0
 20
0.0
 30
0.0
 11
0.0
 21
2.5
 31
0.0
  0
LINE
  5
CC
330
C8
100
AcDbEntity
  8
FORMAT
 62
     0
100
AcDbLine
 10
0.0
 20
0.0
 30
0.0
 11
-2.5
 21
0.0
 31
0.0
  0
LINE
  5
CD
330
C8
100
AcDbEntity
  8
FORMAT
 62
     0
100
AcDbLine
 10
0.0
 20
0.0
 30
0.0
 11
0.0
 21
-2.5
 31
0.0
  0
LINE
  5
CE
330
C8
100
AcDbEntity
  8
FORMAT
 62
     0
100
AcDbLine
 10
0.0
 20
0.0
 30
0.0
 11
2.5
 21
0.0
 31
0.0
  0
LINE
  5
CF
330
C8
100
AcDbEntity
  8
FORMAT
 62
     0
100
AcDbLine
 10
0.0
 20
5.0
 30
0.0
 11
0.0
 21
28.2
 31
0.0
  0
LINE
  5
D0
330
C8
100
AcDbEntity
  8
FORMAT
 62
     0
100
AcDbLine
 10
-5.0
 20
0.0
 30
0.0
 11
-28.2
 21
0.0
 31
0.0
  0
LINE
  5
D1
330
C8
100
AcDbEntity
  8
FORMAT
 62
     0
100
AcDbLine
 10
0.0
 20
-5.0
 30
0.0
 11
0.0
 21
-28.2
 31
0.0
  0
LINE
  5
D2
330
C8
100
AcDbEntity
  8
FORMAT
 62
     0
100
AcDbLine
 10
5.0
 20
0.0
 30
0.0
 11
28.2
 21
0.0
 31
0.0
  0
ENDBLK
  5
CA
330
C8
100
AcDbEntity
  8
0
100
AcDbBlockEnd
  0
BLOCK
  5
F4
330
F3
100
AcDbEntity
  8
0
100
AcDbBlockBegin
  2
SW_CENTERMARKSYMBOL_1
 70
     0
 10
0.0
 20
0.0
 30
0.0
  3
SW_CENTERMARKSYMBOL_1
  1

  0
LINE
  5
F6
330
F3
100
AcDbEntity
  8
FORMAT
 62
     0
100
AcDbLine
 10
0.0
 20
0.0
 30
0.0
 11
0.0
 21
2.5
 31
0.0
  0
LINE
  5
F7
330
F3
100
AcDbEntity
  8
FORMAT
 62
     0
100
AcDbLine
 10
0.0
 20
0.0
 30
0.0
 11
-2.5
 21
0.0
 31
0.0
  0
LINE
  5
F8
330
F3
100
AcDbEntity
  8
FORMAT
 62
     0
100
AcDbLine
 10
0.0
 20
0.0
 30
0.0
 11
0.0
 21
-2.5
 31
0.0
  0
LINE
  5
F9
330
F3
100
AcDbEntity
  8
FORMAT
 62
     0
100
AcDbLine
 10
0.0
 20
0.0
 30
0.0
 11
2.5
 21
0.0
 31
0.0
  0
LINE
  5
FA
330
F3
100
AcDbEntity
  8
FORMAT
 62
     0
100
AcDbLine
 10
0.0
 20
5.0
 30
0.0
 11
0.0
 21
34.0
 31
0.0
  0
LINE
  5
FB
330
F3
100
AcDbEntity
  8
FORMAT
 62
     0
100
AcDbLine
 10
-5.0
 20
0.0
 30
0.0
 11
-34.0
 21
0.0
 31
0.0
  0
LINE
  5
FC
330
F3
100
AcDbEntity
  8
FORMAT
 62
     0
100
AcDbLine
 10
0.0
 20
-5.0
 30
0.0
 11
0.0
 21
-34.0
 31
0.0
  0
LINE
  5
FD
330
F3
100
AcDbEntity
  8
FORMAT
 62
     0
100
AcDbLine
 10
5.0
 20
0.0
 30
0.0
 11
34.0
 21
0.0
 31
0.0
  0
ENDBLK
  5
F5
330
F3
100
AcDbEntity
  8
0
100
AcDbBlockEnd
  0
BLOCK
  5
100
330
FF
100
AcDbEntity
  8
0
100
AcDbBlockBegin
  2
SW_CENTERMARKSYMBOL_2
 70
     0
 10
0.0
 20
0.0
 30
0.0
  3
SW_CENTERMARKSYMBOL_2
  1

  0
LINE
  5
102
330
FF
100
AcDbEntity
  8
FORMAT
 62
     0
100
AcDbLine
 10
0.0
 20
0.0
 30
0.0
 11
0.0
 21
2.5
 31
0.0
  0
LINE
  5
103
330
FF
100
AcDbEntity
  8
FORMAT
 62
     0
100
AcDbLine
 10
0.0
 20
0.0
 30
0.0
 11
-2.5
 21
0.0
 31
0.0
  0
LINE
  5
104
330
FF
100
AcDbEntity
  8
FORMAT
 62
     0
100
AcDbLine
 10
0.0
 20
0.0
 30
0.0
 11
0.0
 21
-2.5
 31
0.0
  0
LINE
  5
105
330
FF
100
AcDbEntity
  8
FORMAT
 62
     0
100
AcDbLine
 10
0.0
 20
0.0
 30
0.0
 11
2.5
 21
0.0
 31
0.0
  0
LINE
  5
106
330
FF
100
AcDbEntity
  8
FORMAT
 62
     0
100
AcDbLine
 10
0.0
 20
5.0
 30
0.0
 11
0.0
 21
9.5
 31
0.0
  0
LINE
  5
107
330
FF
100
AcDbEntity
  8
FORMAT
 62
     0
100
AcDbLine
 10
-5.0
 20
0.0
 30
0.0
 11
-9.5
 21
0.0
 31
0.0
  0
LINE
  5
108
330
FF
100
AcDbEntity
  8
FORMAT
 62
     0
100
AcDbLine
 10
0.0
 20
-5.0
 30
0.0
 11
0.0
 21
-9.5
 31
0.0
  0
LINE
  5
109
330
FF
100
AcDbEntity
  8
FORMAT
 62
     0
100
AcDbLine
 10
5.0
 20
0.0
 30
0.0
 11
9.5
 21
0.0
 31
0.0
  0
ENDBLK
  5
101
330
FF
100
AcDbEntity
  8
0
100
AcDbBlockEnd
  0
BLOCK
  5
10C
330
10B
100
AcDbEntity
  8
0
100
AcDbBlockBegin
  2
SW_CENTERMARKSYMBOL_3
 70
     0
 10
0.0
 20
0.0
 30
0.0
  3
SW_CENTERMARKSYMBOL_3
  1

  0
LINE
  5
10E
330
10B
100
AcDbEntity
  8
FORMAT
 62
     0
100
AcDbLine
 10
0.0
 20
0.0
 30
0.0
 11
0.0
 21
2.5
 31
0.0
  0
LINE
  5
10F
330
10B
100
AcDbEntity
  8
FORMAT
 62
     0
100
AcDbLine
 10
0.0
 20
0.0
 30
0.0
 11
-2.5
 21
0.0
 31
0.0
  0
LINE
  5
110
330
10B
100
AcDbEntity
  8
FORMAT
 62
     0
100
AcDbLine
 10
0.0
 20
0.0
 30
0.0
 11
0.0
 21
-2.5
 31
0.0
  0
LINE
  5
111
330
10B
100
AcDbEntity
  8
FORMAT
 62
     0
100
AcDbLine
 10
0.0
 20
0.0
 30
0.0
 11
2.5
 21
0.0
 31
0.0
  0
LINE
  5
112
330
10B
100
AcDbEntity
  8
FORMAT
 62
     0
100
AcDbLine
 10
0.0
 20
5.0
 30
0.0
 11
0.0
 21
9.5
 31
0.0
  0
LINE
  5
113
330
10B
100
AcDbEntity
  8
FORMAT
 62
     0
100
AcDbLine
 10
-5.0
 20
0.0
 30
0.0
 11
-9.5
 21
0.0
 31
0.0
  0
LINE
  5
114
330
10B
100
AcDbEntity
  8
FORMAT
 62
     0
100
AcDbLine
 10
0.0
 20
-5.0
 30
0.0
 11
0.0
 21
-9.5
 31
0.0
  0
LINE
  5
115
330
10B
100
AcDbEntity
  8
FORMAT
 62
     0
100
AcDbLine
 10
5.0
 20
0.0
 30
0.0
 11
9.5
 21
0.0
 31
0.0
  0
ENDBLK
  5
10D
330
10B
100
AcDbEntity
  8
0
100
AcDbBlockEnd
  0
ENDSEC
  0
SECTION
  2
ENTITIES
  0
LINE
  5
83
330
1F
100
AcDbEntity
  8
0
  6
Continuous
 62
     7
370
    25
100
AcDbLine
 10
171.1807140607
 20
5.7384285714
 30
0.0
 11
211.1807140607
 21
5.7384285714
 31
0.0
  0
LINE
  5
84
330
1F
100
AcDbEntity
  8
0
  6
Continuous
 62
     7
370
    25
100
AcDbLine
 10
71.1807140607
 20
5.7384285714
 30
0.0
 11
111.1807140607
 21
5.7384285714
 31
0.0
  0
LINE
  5
85
330
1F
100
AcDbEntity
  8
0
  6
Continuous
 62
     7
370
    25
100
AcDbLine
 10
74.2035030877
 20
144.7384285714
 30
0.0
 11
71.1807140607
 21
144.7384285714
 31
0.0
  0
LINE
  5
86
330
1F
100
AcDbEntity
  8
0
  6
Continuous
 62
     7
370
    25
100
AcDbLine
 10
109.6984432025
 20
144.7384285714
 30
0.0
 11
88.1790709877
 21
144.7384285714
 31
0.0
  0
LINE
  5
87
330
1F
100
AcDbEntity
  8
0
  6
Continuous
 62
     7
370
    25
100
AcDbLine
 10
194.2035030877
 20
144.7384285714
 30
0.0
 11
172.6676278915
 21
144.7384285714
 31
0.0
  0
LINE
  5
88
330
1F
100
AcDbEntity
  8
0
  6
Continuous
 62
     7
370
    25
100
AcDbLine
 10
211.1807140607
 20
144.7384285714
 30
0.0
 11
208.1790709877
 21
144.7384285714
 31
0.0
  0
LINE
  5
89
330
1F
100
AcDbEntity
  8
0
  6
Continuous
 62
     7
370
    25
100
AcDbLine
 10
109.6807140607
 20
212.7384285714
 30
0.0
 11
109.6807140607
 21
144.7303441911
 31
0.0
  0
LINE
  5
8A
330
1F
100
AcDbEntity
  8
0
  6
Continuous
 62
     7
370
    25
100
AcDbLine
 10
172.6807140607
 20
144.7324969355
 30
0.0
 11
172.6807140607
 21
212.7384285714
 31
0.0
  0
LINE
  5
8B
330
1F
100
AcDbEntity
  8
0
  6
Continuous
 62
     7
370
    25
100
AcDbLine
 10
74.1807140607
 20
159.7384285714
 30
0.0
 11
74.1807140607
 21
144.7361405574
 31
0.0
  0
LINE
  5
8C
330
1F
100
AcDbEntity
  8
0
  6
Continuous
 62
     7
370
    25
100
AcDbLine
 10
88.1807140607
 20
144.7382653355
 30
0.0
 11
88.1807140607
 21
159.7384285714
 31
0.0
  0
LINE
  5
8D
330
1F
100
AcDbEntity
  8
0
  6
Continuous
 62
     7
370
    25
100
AcDbLine
 10
194.1807140607
 20
159.7384285714
 30
0.0
 11
194.1807140607
 21
144.7361405574
 31
0.0
  0
LINE
  5
8E
330
1F
100
AcDbEntity
  8
0
  6
Continuous
 62
     7
370
    25
100
AcDbLine
 10
208.1807140607
 20
144.7382653355
 30
0.0
 11
208.1807140607
 21
159.7384285714
 31
0.0
  0
LINE
  5
8F
330
1F
100
AcDbEntity
  8
0
  6
Continuous
 62
     7
370
    25
100
AcDbLine
 10
211.1807140607
 20
77.2384285714
 30
0.0
 11
71.1807140607
 21
77.2384285714
 31
0.0
  0
LINE
  5
90
330
1F
100
AcDbEntity
  8
0
  6
Continuous
 62
     7
370
    25
100
AcDbLine
 10
71.1807140607
 20
84.2384285714
 30
0.0
 11
71.1807140607
 21
77.2384285714
 31
0.0
  0
LINE
  5
91
330
1F
100
AcDbEntity
  8
0
  6
Continuous
 62
     7
370
    25
100
AcDbLine
 10
211.1807140607
 20
84.2384285714
 30
0.0
 11
71.1807140607
 21
84.2384285714
 31
0.0
  0
LINE
  5
92
330
1F
100
AcDbEntity
  8
0
  6
Continuous
 62
     7
370
    25
100
AcDbLine
 10
211.1807140607
 20
84.2384285714
 30
0.0
 11
211.1807140607
 21
77.2384285714
 31
0.0
  0
LINE
  5
93
330
1F
100
AcDbEntity
  8
0
  6
Continuous
 62
     7
370
    25
100
AcDbLine
 10
71.1807140607
 20
73.2384285714
 30
0.0
 11
71.1807140607
 21
66.2384285714
 31
0.0
  0
LINE
  5
94
330
1F
100
AcDbEntity
  8
0
  6
Continuous
 62
     7
370
    25
100
AcDbLine
 10
211.1807140607
 20
73.2384285714
 30
0.0
 11
71.1807140607
 21
73.2384285714
 31
0.0
  0
LINE
  5
95
330
1F
100
AcDbEntity
  8
0
  6
Continuous
 62
     7
370
    25
100
AcDbLine
 10
211.1807140607
 20
73.2384285714
 30
0.0
 11
211.1807140607
 21
66.2384285714
 31
0.0
  0
LINE
  5
96
330
1F
100
AcDbEntity
  8
0
  6
Continuous
 62
     7
370
    25
100
AcDbLine
 10
211.1807140607
 20
66.2384285714
 30
0.0
 11
71.1807140607
 21
66.2384285714
 31
0.0
  0
SPLINE
  5
97
330
1F
100
AcDbEntity
  8
0
  6
Continuous
 62
     7
370
    25
100
AcDbSpline
210
0.0
220
0.0
230
1.0
 70
     8
 71
     3
 72
    17
 73
    13
 74
     0
 42
0.00000001
 43
0.00000001
 40
0.0
 40
0.0
 40
0.0
 40
0.0
 40
0.1054785986163193
 40
0.2140256514864552
 40
0.3195015281586246
 40
0.4280178275189758
 40
0.533829160276837
 40
0.6426952994727457
 40
0.7487162822936207
 40
0.8578318348073403
 40
0.9634870199644089
 40
1.0
 40
1.0
 40
1.0
 40
1.0
 10
81.18071406074249
 20
144.3850120011252
 30
0.0
 10
80.79387488952092
 20
144.3869069486997
 30
0.0
 10
80.00894309551465
 20
144.3907519693436
 30
0.0
 10
78.86994813276172
 20
144.4208553315783
 30
0.0
 10
77.78657129999377
 20
144.4656247784258
 30
0.0
 10
76.80765896465485
 20
144.5211277746358
 30
0.0
 10
75.9428010817369
 20
144.5816223550617
 30
0.0
 10
75.23294665919569
 20
144.6393985718227
 30
0.0
 10
74.68184942621207
 20
144.6892744096879
 30
0.0
 10
74.33381238604034
 20
144.7230123377063
 30
0.0
 10
74.17263820086545
 20
144.7392388877122
 30
0.0
 10
74.19719593648732
 20
144.7367722677809
 30
0.0
 10
74.20350308766469
 20
144.7361387669955
 30
0.0
  0
SPLINE
  5
98
330
1F
100
AcDbEntity
  8
0
  6
Continuous
 62
     7
370
    25
100
AcDbSpline
210
0.0
220
0.0
230
1.0
 70
     8
 71
     3
 72
    17
 73
    13
 74
     0
 42
0.00000001
 43
0.00000001
 40
0.0
 40
0.0
 40
0.0
 40
0.0
 40
0.0017778996121553
 40
0.1071534716213737
 40
0.2155868440279362
 40
0.3209608986164544
 40
0.4293652132450388
 40
0.5351939399051356
 40
0.6440780379486646
 40
0.7501154386849765
 40
0.8592480043494646
 40
0.9999999999999999
 40
0.9999999999999999
 40
0.9999999999999999
 40
0.9999999999999999
 10
88.17907098770061
 20
144.7382642222443
 30
0.0
 10
88.1796179479066
 20
144.7383189300803
 30
0.0
 10
88.21258307400754
 20
144.7416161548028
 30
0.0
 10
88.09704628668158
 20
144.7299686038341
 30
0.0
 10
87.82171873621
 20
144.7028526901292
 30
0.0
 10
87.33188564848813
 20
144.6573000647748
 30
0.0
 10
86.6801452459152
 20
144.602066838492
 30
0.0
 10
85.86396453123058
 20
144.541588106536
 30
0.0
 10
84.92165830051873
 20
144.4836331505787
 30
0.0
 10
83.86271012675046
 20
144.4343909636943
 30
0.0
 10
82.61476955448396
 20
144.3942948776753
 30
0.0
 10
81.69742497532164
 20
144.3883567556713
 30
0.0
 10
81.18071406074249
 20
144.3850120011252
 30
0.0
  0
SPLINE
  5
99
330
1F
100
AcDbEntity
  8
0
  6
Continuous
 62
     7
370
    25
100
AcDbSpline
210
0.0
220
0.0
230
1.0
 70
     8
 71
     3
 72
    27
 73
    23
 74
     0
 42
0.00000001
 43
0.00000001
 40
0.0
 40
0.0
 40
0.0
 40
0.0
 40
0.0490736847190278
 40
0.0981485070256213
 40
0.1487590907681693
 40
0.199372743964176
 40
0.2484096340786885
 40
0.2974493395910815
 40
0.3477432081649618
 40
0.3980391209298775
 40
0.45036699306844
 40
0.5026954321518112
 40
0.5563912209585009
 40
0.6100856500340447
 40
0.6650167997133175
 40
0.7199448669303473
 40
0.7766767702769696
 40
0.8334046559016707
 40
0.8849754528962661
 40
0.936544342247641
 40
0.989855505442243
 40
0.9999999999999999
 40
0.9999999999999999
 40
0.9999999999999999
 40
0.9999999999999999
 10
141.1807140607425
 20
137.1900225783627
 30
0.0
 10
140.3598242405535
 20
137.1995850869454
 30
0.0
 10
138.7180255709535
 20
137.2187103257814
 30
0.0
 10
136.2485905839276
 20
137.3708673901346
 30
0.0
 10
133.7920868125895
 20
137.6131828808098
 30
0.0
 10
131.3926864032362
 20
137.9440957833952
 30
0.0
 10
129.0896421008385
 20
138.3463036033171
 30
0.0
 10
126.8734348513098
 20
138.808747379598
 30
0.0
 10
124.7340803735625
 20
139.325282346323
 30
0.0
 10
122.6564411796322
 20
139.8904145669002
 30
0.0
 10
120.6740305783397
 20
140.4871599222148
 30
0.0
 10
118.7852617984652
 20
141.1062908219514
 30
0.0
 10
117.0310654615282
 20
141.7243641403616
 30
0.0
 10
115.4129655478141
 20
142.3302255031492
 30
0.0
 10
113.9626057196953
 20
142.9015471449852
 30
0.0
 10
112.680907667956
 20
143.4283092403755
 30
0.0
 10
111.599882873973
 20
143.887919791626
 30
0.0
 10
110.7651031300097
 20
144.2528108572245
 30
0.0
 10
110.1697911292928
 20
144.5176210257858
 30
0.0
 10
109.8140081713225
 20
144.6780524398559
 30
0.0
 10
109.6587958872538
 20
144.7482531754715
 30
0.0
 10
109.6929785130767
 20
144.732808869099
 30
0.0
 10
109.6984432024978
 20
144.7303398271335
 30
0.0
  0
SPLINE
  5
9A
330
1F
100
AcDbEntity
  8
0
  6
Continuous
 62
     7
370
    25
100
AcDbSpline
210
0.0
220
0.0
230
1.0
 70
     8
 71
     3
 72
    26
 73
    22
 74
     0
 42
0.00000001
 43
0.00000001
 40
0.0
 40
0.0
 40
0.0
 40
0.0
 40
0.0077324264892465
 40
0.0593270528459189
 40
0.1109227451135837
 40
0.2063183766319555
 40
0.2553265670765881
 40
0.3043370169190931
 40
0.3543149368811339
 40
0.4042948245202357
 40
0.4555138270317065
 40
0.5067337877668223
 40
0.5607566269545434
 40
0.6147785926477447
 40
0.670345762345624
 40
0.725909524649638
 40
0.7800852216946246
 40
0.8342565738287638
 40
0.8903559497542701
 40
0.9464514843105231
 40
1.0
 40
1.0
 40
1.0
 40
1.0
 10
172.6676278914944
 20
144.7324933476924
 30
0.0
 10
172.6718021158056
 20
144.7343872358465
 30
0.0
 10
172.7038288575588
 20
144.748918095307
 30
0.0
 10
172.5630070802011
 20
144.6849219602102
 30
0.0
 10
172.1337492072716
 20
144.4916645455957
 30
0.0
 10
171.307922674891
 20
144.1242697430811
 30
0.0
 10
170.1625398672976
 20
143.6320705467947
 30
0.0
 10
169.1164939231471
 20
143.1947231128459
 30
0.0
 10
167.8998207586934
 20
142.7027087829273
 30
0.0
 10
166.5068826303532
 20
142.1622404510713
 30
0.0
 10
164.9488477011974
 20
141.587038317976
 30
0.0
 10
163.2002299419022
 20
140.9793018491256
 30
0.0
 10
161.2726025650727
 20
140.357116989772
 30
0.0
 10
159.1484017503522
 20
139.731378071006
 30
0.0
 10
156.8668553166731
 20
139.1314792834629
 30
0.0
 10
154.4577647071931
 20
138.5814334395935
 30
0.0
 10
151.9593515423579
 20
138.10471403351
 30
0.0
 10
149.3613585073259
 20
137.7087552324188
 30
0.0
 10
146.6570737626055
 20
137.4132815580046
 30
0.0
 10
143.9105373680576
 20
137.2243111491354
 30
0.0
 10
142.0764533081988
 20
137.2012737163019
 30
0.0
 10
141.1807140607425
 20
137.1900225783627
 30
0.0
  0
SPLINE
  5
9B
330
1F
100
AcDbEntity
  8
0
  6
Continuous
 62
     7
370
    25
100
AcDbSpline
210
0.0
220
0.0
230
1.0
 70
     8
 71
     3
 72
    17
 73
    13
 74
     0
 42
0.00000001
 43
0.00000001
 40
0.0
 40
0.0
 40
0.0
 40
0.0
 40
0.1054785986163193
 40
0.2140256514864552
 40
0.3195015281586247
 40
0.4280178275189758
 40
0.533829160276837
 40
0.6426952994727452
 40
0.7487162822936205
 40
0.8578318348073406
 40
0.9634870199644091
 40
1.0
 40
1.0
 40
1.0
 40
1.0
 10
201.1807140607425
 20
144.3850120011252
 30
0.0
 10
200.7938748895209
 20
144.3869069486997
 30
0.0
 10
200.0089430955146
 20
144.3907519693437
 30
0.0
 10
198.8699481327618
 20
144.4208553315783
 30
0.0
 10
197.7865712999937
 20
144.4656247784258
 30
0.0
 10
196.8076589646549
 20
144.5211277746358
 30
0.0
 10
195.9428010817369
 20
144.5816223550617
 30
0.0
 10
195.2329466591957
 20
144.6393985718226
 30
0.0
 10
194.6818494262121
 20
144.6892744096879
 30
0.0
 10
194.3338123860404
 20
144.7230123377064
 30
0.0
 10
194.1726382008655
 20
144.7392388877122
 30
0.0
 10
194.1971959364873
 20
144.7367722677809
 30
0.0
 10
194.2035030876647
 20
144.7361387669955
 30
0.0
  0
SPLINE
  5
9C
330
1F
100
AcDbEntity
  8
0
  6
Continuous
 62
     7
370
    25
100
AcDbSpline
210
0.0
220
0.0
230
1.0
 70
     8
 71
     3
 72
    17
 73
    13
 74
     0
 42
0.00000001
 43
0.00000001
 40
0.0
 40
0.0
 40
0.0
 40
0.0
 40
0.0017778996121553
 40
0.1071534716213737
 40
0.2155868440279361
 40
0.320960898616454
 40
0.4293652132450382
 40
0.5351939399051343
 40
0.6440780379486638
 40
0.7501154386849759
 40
0.8592480043494652
 40
0.9999999999999999
 40
0.9999999999999999
 40
0.9999999999999999
 40
0.9999999999999999
 10
208.1790709877006
 20
144.7382642222443
 30
0.0
 10
208.1796179479066
 20
144.7383189300803
 30
0.0
 10
208.2125830740075
 20
144.7416161548031
 30
0.0
 10
208.0970462866817
 20
144.729968603834
 30
0.0
 10
207.82171873621
 20
144.7028526901292
 30
0.0
 10
207.3318856484881
 20
144.6573000647748
 30
0.0
 10
206.6801452459152
 20
144.602066838492
 30
0.0
 10
205.8639645312306
 20
144.541588106536
 30
0.0
 10
204.9216583005187
 20
144.4836331505787
 30
0.0
 10
203.8627101267504
 20
144.4343909636943
 30
0.0
 10
202.614769554484
 20
144.3942948776753
 30
0.0
 10
201.6974249753216
 20
144.3883567556713
 30
0.0
 10
201.1807140607425
 20
144.3850120011252
 30
0.0
  0
LINE
  5
9D
330
1F
100
AcDbEntity
  8
0
  6
Continuous
 62
     7
370
    25
100
AcDbLine
 10
111.1807140607
 20
65.2384285714
 30
0.0
 11
171.1807140607
 21
65.2384285714
 31
0.0
  0
LINE
  5
9E
330
1F
100
AcDbEntity
  8
0
  6
Continuous
 62
     7
370
    25
100
AcDbLine
 10
111.1807140607
 20
5.7384285714
 30
0.0
 11
111.1807140607
 21
65.2384285714
 31
0.0
  0
LINE
  5
9F
330
1F
100
AcDbEntity
  8
0
  6
Continuous
 62
     7
370
    25
100
AcDbLine
 10
171.1807140607
 20
65.2384285714
 30
0.0
 11
171.1807140607
 21
5.7384285714
 31
0.0
  0
LINE
  5
A0
330
1F
100
AcDbEntity
  8
0
  6
Continuous
 62
     7
370
    25
100
AcDbLine
 10
71.1807140607
 20
66.2384285714
 30
0.0
 11
71.1807140607
 21
5.7384285714
 31
0.0
  0
LINE
  5
A1
330
1F
100
AcDbEntity
  8
0
  6
Continuous
 62
     7
370
    25
100
AcDbLine
 10
71.1807140607
 20
144.7384285714
 30
0.0
 11
71.1807140607
 21
84.2384285714
 31
0.0
  0
LINE
  5
A2
330
1F
100
AcDbEntity
  8
0
  6
Continuous
 62
     7
370
    25
100
AcDbLine
 10
211.1807140607
 20
66.2384285714
 30
0.0
 11
211.1807140607
 21
5.7384285714
 31
0.0
  0
LINE
  5
A3
330
1F
100
AcDbEntity
  8
0
  6
Continuous
 62
     7
370
    25
100
AcDbLine
 10
211.1807140607
 20
144.7384285714
 30
0.0
 11
211.1807140607
 21
84.2384285714
 31
0.0
  0
LINE
  5
A4
330
1F
100
AcDbEntity
  8
0
  6
Continuous
 62
     7
370
    25
100
AcDbLine
 10
71.1807140607
 20
77.2384285714
 30
0.0
 11
71.1807140607
 21
73.2384285714
 31
0.0
  0
LINE
  5
A5
330
1F
100
AcDbEntity
  8
0
  6
Continuous
 62
     7
370
    25
100
AcDbLine
 10
211.1807140607
 20
77.2384285714
 30
0.0
 11
211.1807140607
 21
73.2384285714
 31
0.0
  0
LINE
  5
A6
330
1F
100
AcDbEntity
  8
0
  6
Continuous
 62
     7
370
    25
100
AcDbLine
 10
141.1807140607
 20
212.7384285714
 30
0.0
 11
172.6807140607
 21
212.7384285714
 31
0.0
  0
LINE
  5
A7
330
1F
100
AcDbEntity
  8
0
  6
Continuous
 62
     7
370
    25
100
AcDbLine
 10
109.6807140607
 20
212.7384285714
 30
0.0
 11
141.1807140607
 21
212.7384285714
 31
0.0
  0
LINE
  5
A8
330
1F
100
AcDbEntity
  8
0
  6
Continuous
 62
     7
370
    25
100
AcDbLine
 10
81.1807140607
 20
159.7384285714
 30
0.0
 11
88.1807140607
 21
159.7384285714
 31
0.0
  0
LINE
  5
A9
330
1F
100
AcDbEntity
  8
0
  6
Continuous
 62
     7
370
    25
100
AcDbLine
 10
74.1807140607
 20
159.7384285714
 30
0.0
 11
81.1807140607
 21
159.7384285714
 31
0.0
  0
LINE
  5
AA
330
1F
100
AcDbEntity
  8
0
  6
Continuous
 62
     7
370
    25
100
AcDbLine
 10
201.1807140607
 20
159.7384285714
 30
0.0
 11
194.1807140607
 21
159.7384285714
 31
0.0
  0
LINE
  5
AB
330
1F
100
AcDbEntity
  8
0
  6
Continuous
 62
     7
370
    25
100
AcDbLine
 10
208.1807140607
 20
159.7384285714
 30
0.0
 11
201.1807140607
 21
159.7384285714
 31
0.0
  0
LINE
  5
AC
330
1F
100
AcDbEntity
  8
0
  6
Continuous
 62
     7
370
    25
100
AcDbLine
 10
385.4807213926
 20
159.7384285714
 30
0.0
 11
385.4807213926
 21
144.387362712
 31
0.0
  0
LINE
  5
AD
330
1F
100
AcDbEntity
  8
0
  6
Continuous
 62
     7
370
    25
100
AcDbLine
 10
399.4807213926
 20
144.3850120011
 30
0.0
 11
399.4807213926
 21
159.7384285714
 31
0.0
  0
LINE
  5
AE
330
1F
100
AcDbEntity
  8
0
  6
Continuous
 62
     7
370
    25
100
AcDbLine
 10
360.9807213926
 20
212.7384285714
 30
0.0
 11
360.9807213926
 21
137.2057200977
 31
0.0
  0
LINE
  5
AF
330
1F
100
AcDbEntity
  8
0
  6
Continuous
 62
     7
370
    25
100
AcDbLine
 10
423.9807213926
 20
137.1900225784
 30
0.0
 11
423.9807213926
 21
212.7384285714
 31
0.0
  0
LINE
  5
B0
330
1F
100
AcDbEntity
  8
0
  6
Continuous
 62
     7
370
    25
100
AcDbLine
 10
461.3955238664
 20
84.2384285714
 30
0.0
 11
476.3955238664
 21
84.2384285714
 31
0.0
  0
LINE
  5
B1
330
1F
100
AcDbEntity
  8
0
  6
Continuous
 62
     7
370
    25
100
AcDbLine
 10
476.3955238664
 20
84.2384285714
 30
0.0
 11
476.3955238664
 21
77.2384285714
 31
0.0
  0
LINE
  5
B2
330
1F
100
AcDbEntity
  8
0
  6
Continuous
 62
     7
370
    25
100
AcDbLine
 10
476.3955238664
 20
77.2384285714
 30
0.0
 11
454.9487131964
 21
77.2384285714
 31
0.0
  0
ARC
  5
B3
330
1F
100
AcDbEntity
  8
0
  6
Continuous
 62
     7
370
    25
100
AcDbCircle
 10
392.4807213926
 20
75.2384285714
 30
0.0
 40
62.50000000000004
100
AcDbArc
 50
1.833778
 51
358.166222
  0
LINE
  5
B4
330
1F
100
AcDbEntity
  8
0
  6
Continuous
 62
     7
370
    25
100
AcDbLine
 10
454.9487131964
 20
73.2384285714
 30
0.0
 11
476.3955238664
 21
73.2384285714
 31
0.0
  0
LINE
  5
B5
330
1F
100
AcDbEntity
  8
0
  6
Continuous
 62
     7
370
    25
100
AcDbLine
 10
476.3955238664
 20
73.2384285714
 30
0.0
 11
476.3955238664
 21
66.2384285714
 31
0.0
  0
LINE
  5
B6
330
1F
100
AcDbEntity
  8
0
  6
Continuous
 62
     7
370
    25
100
AcDbLine
 10
476.3955238664
 20
66.2384285714
 30
0.0
 11
461.3955238664
 21
66.2384285714
 31
0.0
  0
ARC
  5
B7
330
1F
100
AcDbEntity
  8
0
  6
Continuous
 62
     7
370
    25
100
AcDbCircle
 10
392.4807213926
 20
75.2384285714
 30
0.0
 40
69.5000000000001
100
AcDbArc
 50
7.4404923436
 51
352.5595076564
  0
LINE
  5
B8
330
1F
100
AcDbEntity
  8
0
  6
Continuous
 62
     7
370
    25
100
AcDbLine
 10
385.4807213926
 20
159.7384285714
 30
0.0
 11
399.4807213926
 21
159.7384285714
 31
0.0
  0
LINE
  5
B9
330
1F
100
AcDbEntity
  8
0
  6
Continuous
 62
     7
370
    25
100
AcDbLine
 10
360.9807213926
 20
212.7384285714
 30
0.0
 11
423.9807213926
 21
212.7384285714
 31
0.0
  0
LINE
  5
BA
330
1F
100
AcDbEntity
  8
0
  6
Continuous
 62
     7
370
    25
100
AcDbLine
 10
71.1807140607
 20
244.8279132267
 30
0.0
 11
211.1807140607
 21
244.8279132267
 31
0.0
  0
LINE
  5
BB
330
1F
100
AcDbEntity
  8
0
  6
Continuous
 62
     7
370
    25
100
AcDbLine
 10
211.1807140607
 20
383.2427157005
 30
0.0
 11
71.1807140607
 21
383.2427157005
 31
0.0
  0
LINE
  5
BC
330
1F
100
AcDbEntity
  8
0
  6
Continuous
 62
     7
370
    25
100
AcDbLine
 10
211.1807140607
 20
383.2427157005
 30
0.0
 11
211.1807140607
 21
244.8279132267
 31
0.0
  0
LINE
  5
BD
330
1F
100
AcDbEntity
  8
0
  6
Continuous
 62
     7
370
    25
100
AcDbLine
 10
71.1807140607
 20
383.2427157005
 30
0.0
 11
71.1807140607
 21
244.8279132267
 31
0.0
  0
LINE
  5
BE
330
1F
100
AcDbEntity
  8
0
  6
Continuous
 62
     7
370
    25
100
AcDbLine
 10
111.1807140607
 20
383.1047261799
 30
0.0
 11
171.1807140607
 21
383.1047261799
 31
0.0
  0
LINE
  5
BF
330
1F
100
AcDbEntity
  8
0
  6
Continuous
 62
     7
370
    25
100
AcDbLine
 10
111.1807140607
 20
245.5511002735
 30
0.0
 11
111.1807140607
 21
383.1047261799
 31
0.0
  0
LINE
  5
C0
330
1F
100
AcDbEntity
  8
0
  6
Continuous
 62
     7
370
    25
100
AcDbLine
 10
171.1807140607
 20
245.5511002735
 30
0.0
 11
111.1807140607
 21
245.5511002735
 31
0.0
  0
LINE
  5
C1
330
1F
100
AcDbEntity
  8
0
  6
Continuous
 62
     7
370
    25
100
AcDbLine
 10
171.1807140607
 20
383.1047261799
 30
0.0
 11
171.1807140607
 21
245.5511002735
 31
0.0
  0
SPLINE
  5
C2
330
1F
100
AcDbEntity
  8
0
  6
Continuous
 62
     7
370
    25
100
AcDbSpline
210
0.0
220
0.0
230
1.0
 70
    11
 71
     3
 72
   124
 73
   120
 74
     0
 42
0.00000001
 43
0.00000001
 40
0.0
 40
0.0
 40
0.0
 40
0.0
 40
0.0312499999999998
 40
0.0312499999999998
 40
0.0468749999999997
 40
0.0468749999999997
 40
0.0546874999999996
 40
0.0546874999999996
 40
0.0624999999999996
 40
0.0624999999999996
 40
0.0937499999999994
 40
0.0937499999999994
 40
0.1093749999999993
 40
0.1093749999999993
 40
0.1249999999999993
 40
0.1249999999999993
 40
0.1406249999999992
 40
0.1406249999999992
 40
0.1484374999999992
 40
0.1484374999999992
 40
0.1562499999999992
 40
0.1562499999999992
 40
0.1874999999999992
 40
0.1874999999999992
 40
0.2031249999999993
 40
0.2031249999999993
 40
0.2187499999999993
 40
0.2187499999999993
 40
0.2499999999999993
 40
0.2499999999999993
 40
0.2578124999999993
 40
0.2578124999999993
 40
0.2656249999999993
 40
0.2656249999999993
 40
0.2812499999999993
 40
0.2812499999999993
 40
0.2968749999999993
 40
0.2968749999999993
 40
0.3124999999999993
 40
0.3124999999999993
 40
0.3437499999999994
 40
0.3437499999999994
 40
0.3593749999999994
 40
0.3593749999999994
 40
0.3671874999999994
 40
0.3671874999999994
 40
0.3749999999999994
 40
0.3749999999999994
 40
0.4062499999999995
 40
0.4062499999999995
 40
0.4218749999999995
 40
0.4218749999999995
 40
0.4374999999999995
 40
0.4374999999999995
 40
0.4687499999999994
 40
0.4687499999999994
 40
0.4765624999999994
 40
0.4765624999999994
 40
0.4843749999999994
 40
0.4843749999999994
 40
0.4999999999999994
 40
0.4999999999999994
 40
0.5156249999999994
 40
0.5156249999999994
 40
0.5312499999999994
 40
0.5312499999999994
 40
0.5624999999999994
 40
0.5624999999999994
 40
0.5781249999999994
 40
0.5781249999999994
 40
0.5937499999999994
 40
0.5937499999999994
 40
0.6093749999999994
 40
0.6093749999999994
 40
0.6171874999999996
 40
0.6171874999999996
 40
0.6249999999999996
 40
0.6249999999999996
 40
0.6562499999999996
 40
0.6562499999999996
 40
0.6718749999999996
 40
0.6718749999999996
 40
0.6796874999999997
 40
0.6796874999999997
 40
0.6874999999999997
 40
0.6874999999999997
 40
0.7187499999999997
 40
0.7187499999999997
 40
0.7265624999999998
 40
0.7265624999999998
 40
0.7343749999999998
 40
0.7343749999999998
 40
0.7499999999999998
 40
0.7499999999999998
 40
0.7812499999999999
 40
0.7812499999999999
 40
0.7968749999999999
 40
0.7968749999999999
 40
0.8124999999999999
 40
0.8124999999999999
 40
0.8281249999999999
 40
0.8281249999999999
 40
0.8359374999999999
 40
0.8359374999999999
 40
0.84375
 40
0.84375
 40
0.875
 40
0.875
 40
0.890625
 40
0.890625
 40
0.90625
 40
0.90625
 40
0.9375
 40
0.9375
 40
0.96875
 40
0.96875
 40
0.984375
 40
0.984375
 40
1.0
 40
1.0
 40
1.0
 40
1.0
 10
141.1807140607424
 20
288.6279132266715
 30
0.0
 10
142.8990199482007
 20
288.6279132266715
 30
0.0
 10
144.5842914940555
 20
288.7984634312816
 30
0.0
 10
147.0658139528682
 20
289.296585139459
 30
0.0
 10
147.8852063447513
 20
289.5033277823937
 30
0.0
 10
149.1025706683009
 20
289.8756280020564
 30
0.0
 10
149.5071460953283
 20
290.0104353598359
 30
0.0
 10
150.3035080969816
 20
290.2978522778729
 30
0.0
 10
150.696298749326
 20
290.4507264127844
 30
0.0
 10
152.6341400446533
 20
291.2599383046071
 30
0.0
 10
154.1016467059622
 20
292.0493357363855
 30
0.0
 10
156.1848830081718
 20
293.4457726982141
 30
0.0
 10
156.8612981736646
 20
293.9489087176889
 30
0.0
 10
158.1486556917403
 20
295.0076259693191
 30
0.0
 10
158.7628763739302
 20
295.5650964334777
 30
0.0
 10
159.9342742893314
 20
296.7358779727585
 30
0.0
 10
160.4914485032793
 20
297.3491890736128
 30
0.0
 10
161.2843743840489
 20
298.3121170788344
 30
0.0
 10
161.5415290218239
 20
298.6402674504446
 30
0.0
 10
162.0413385709798
 20
299.3112770879536
 30
0.0
 10
162.2846160322451
 20
299.6550861185534
 30
0.0
 10
163.4555016146398
 20
301.3993255346999
 30
0.0
 10
164.2449807640438
 20
302.8680983521604
 30
0.0
 10
165.2131032611062
 20
305.1827665246217
 30
0.0
 10
165.4995111906471
 20
305.9730362356873
 30
0.0
 10
165.9969890555167
 20
307.5929032961906
 30
0.0
 10
166.2080072132245
 20
308.4250067608787
 30
0.0
 10
166.7102104061627
 20
310.9200333159559
 30
0.0
 10
166.8787942594566
 20
312.6007838776147
 30
0.0
 10
166.8811738297406
 20
314.7236865426018
 30
0.0
 10
166.8711364871628
 20
315.1493741891174
 30
0.0
 10
166.8296256770441
 20
316.0030058987024
 30
0.0
 10
166.7979931191768
 20
316.4321704954605
 30
0.0
 10
166.6717032032346
 20
317.7088912776414
 30
0.0
 10
166.5458564727051
 20
318.5485453361595
 30
0.0
 10
166.2137864973831
 20
320.205792892392
 30
0.0
 10
166.0075559119386
 20
321.0233841568703
 30
0.0
 10
165.515126793384
 20
322.6368099187055
 30
0.0
 10
165.2283770495319
 20
323.4339682236584
 30
0.0
 10
164.2486031986417
 20
325.7840828327726
 30
0.0
 10
163.4549501123159
 20
327.25554561378
 30
0.0
 10
162.0634238527383
 20
329.3311211985567
 30
0.0
 10
161.5657896410017
 20
330.000862940298
 30
0.0
 10
160.7673108022618
 20
330.9721582642151
 30
0.0
 10
160.4925133027214
 20
331.290190864782
 30
0.0
 10
159.9311196952139
 20
331.9087761513866
 30
0.0
 10
159.6438494394624
 20
332.2101720987729
 30
0.0
 10
158.1749517925192
 20
333.6785382818073
 30
0.0
 10
156.8967795967912
 20
334.7309203939257
 30
0.0
 10
154.8178958159443
 20
336.1273198269827
 30
0.0
 10
154.0936377931781
 20
336.5641467197168
 30
0.0
 10
152.6161023004684
 20
337.3588831385894
 30
0.0
 10
151.8614917952856
 20
337.7182619695581
 30
0.0
 10
149.5498912165543
 20
338.6843617167305
 30
0.0
 10
147.9456322386995
 20
339.180314574172
 30
0.0
 10
145.8534074592786
 20
339.6031616838383
 30
0.0
 10
145.4310562503906
 20
339.6775897134866
 30
0.0
 10
144.5884944732954
 20
339.8045405422152
 30
0.0
 10
144.1669451543459
 20
339.857349979428
 30
0.0
 10
142.9015008894119
 20
339.9842528120424
 30
0.0
 10
142.0568111688983
 20
340.0268964701603
 30
0.0
 10
140.3653208267825
 20
340.0288941372525
 30
0.0
 10
139.5185202650352
 20
339.9882509008077
 30
0.0
 10
137.822767749791
 20
339.8218343518721
 30
0.0
 10
136.9707183805061
 20
339.6949691939716
 30
0.0
 10
134.4718640568217
 20
339.1949134463977
 30
0.0
 10
132.8630721925452
 20
338.702955900468
 30
0.0
 10
130.5308752037889
 20
337.7326114776674
 30
0.0
 10
129.7636134208056
 20
337.3679830761894
 30
0.0
 10
128.2840789709668
 20
336.5736276241522
 30
0.0
 10
127.5693619796873
 20
336.143329817745
 30
0.0
 10
126.1877526993457
 20
335.2179207932617
 30
0.0
 10
125.5208650121334
 20
334.7228061469352
 30
0.0
 10
124.5559051754986
 20
333.930945183302
 30
0.0
 10
124.2401592044697
 20
333.6587766742901
 30
0.0
 10
123.620544791476
 20
333.0977063982431
 30
0.0
 10
123.3159524981917
 20
332.8080467937464
 30
0.0
 10
121.8357896900026
 20
331.3298124908668
 30
0.0
 10
120.782130146994
 20
330.0490135853203
 30
0.0
 10
119.3902294643754
 20
327.9791434495754
 30
0.0
 10
118.9579567264579
 20
327.2642215769667
 30
0.0
 10
118.3586179291046
 20
326.152429389136
 30
0.0
 10
118.166537794016
 20
325.7741417105838
 30
0.0
 10
117.8027807144611
 20
325.0115777758189
 30
0.0
 10
117.6308382708289
 20
324.6269495284149
 30
0.0
 10
116.8200687401263
 20
322.687203567539
 30
0.0
 10
116.3265771306771
 20
321.0827304788465
 30
0.0
 10
115.9070255073343
 20
319.0087007481117
 30
0.0
 10
115.8330748325689
 20
318.5904437779841
 30
0.0
 10
115.705570866683
 20
317.7468400151071
 30
0.0
 10
115.6519107678298
 20
317.3201266821161
 30
0.0
 10
115.5237061414635
 20
316.0427019468212
 30
0.0
 10
115.4813113081258
 20
315.1932280450502
 30
0.0
 10
115.479538317098
 20
312.6510555407834
 30
0.0
 10
115.6443417908661
 20
310.9645523528636
 30
0.0
 10
116.1478798470441
 20
308.447493386406
 30
0.0
 10
116.3567250480992
 20
307.6217733335693
 30
0.0
 10
116.8503593686912
 20
306.0070609070667
 30
0.0
 10
117.1355376180271
 20
305.216146376443
 30
0.0
 10
117.7814627970725
 20
303.6663070815414
 30
0.0
 10
118.1422085521579
 20
302.9073828930555
 30
0.0
 10
118.7409313510021
 20
301.79300340521
 30
0.0
 10
118.9504716696689
 20
301.4250784096554
 30
0.0
 10
119.3844905477714
 20
300.7047174322299
 30
0.0
 10
119.6094262720995
 20
300.3513645672359
 30
0.0
 10
120.773053116102
 20
298.6178119090786
 30
0.0
 10
121.8272935707197
 20
297.3362185903442
 30
0.0
 10
123.5964551474219
 20
295.5667970208386
 30
0.0
 10
124.2205854511964
 20
295.0007362977989
 30
0.0
 10
125.5095015970906
 20
293.9416720230712
 30
0.0
 10
126.1763291495794
 20
293.446170414277
 30
0.0
 10
128.2440636737491
 20
292.0593687177456
 30
0.0
 10
129.7114229680919
 20
291.2666048695908
 30
0.0
 10
132.8426276815586
 20
289.9589802003451
 30
0.0
 10
134.4527457206081
 20
289.4670803559965
 30
0.0
 10
136.9292783900799
 20
288.9680150212254
 30
0.0
 10
137.7654023410912
 20
288.8416304408924
 30
0.0
 10
139.4597757469479
 20
288.6714649982202
 30
0.0
 10
140.3215611170133
 20
288.6279132266715
 30
0.0
 10
141.1807140607425
 20
288.6279132266715
 30
0.0
  0
LINE
  5
C3
330
1F
100
AcDbEntity
  8
0
  6
Continuous
 62
     7
370
    25
100
AcDbLine
 10
171.1807140607
 20
376.0227266229
 30
0.0
 11
111.1807140607
 21
376.0227266229
 31
0.0
  0
LINE
  5
C4
330
1F
100
AcDbEntity
  8
0
  6
Continuous
 62
     7
370
    25
100
AcDbLine
 10
111.1807140607
 20
252.6330998304
 30
0.0
 11
171.1807140607
 21
252.6330998304
 31
0.0
  0
LINE
  5
C5
330
1F
100
AcDbEntity
  8
0
  6
Continuous
 62
     7
370
    25
100
AcDbLine
 10
211.1807140607
 20
398.2427157005
 30
0.0
 11
71.1807140607
 21
398.2427157005
 31
0.0
  0
LINE
  5
C6
330
1F
100
AcDbEntity
  8
0
  6
Continuous
 62
     7
370
    25
100
AcDbLine
 10
71.1807140607
 20
398.2427157005
 30
0.0
 11
71.1807140607
 21
383.2427157005
 31
0.0
  0
LINE
  5
C7
330
1F
100
AcDbEntity
  8
0
  6
Continuous
 62
     7
370
    25
100
AcDbLine
 10
211.1807140607
 20
398.2427157005
 30
0.0
 11
211.1807140607
 21
383.2427157005
 31
0.0
  0
INSERT
  5
D3
330
1F
100
AcDbEntity
  8
FORMAT
100
AcDbBlockReference
  2
SW_CENTERMARKSYMBOL_0
 10
141.1807140607
 20
314.3279132267
 30
0.0
  0
LINE
  5
D4
330
1F
100
AcDbEntity
  8
0
  6
Continuous
 62
     7
370
    25
100
AcDbLine
 10
-54.9468347662
 20
159.7384285714
 30
0.0
 11
-54.9468347662
 21
144.3850120011
 31
0.0
  0
LINE
  5
D5
330
1F
100
AcDbEntity
  8
0
  6
Continuous
 62
     7
370
    25
100
AcDbLine
 10
-40.9468347662
 20
144.387362712
 30
0.0
 11
-40.9468347662
 21
159.7384285714
 31
0.0
  0
LINE
  5
D6
330
1F
100
AcDbEntity
  8
0
  6
Continuous
 62
     7
370
    25
100
AcDbLine
 10
-79.4468347662
 20
212.7384285714
 30
0.0
 11
-79.4468347662
 21
137.1900225784
 31
0.0
  0
LINE
  5
D7
330
1F
100
AcDbEntity
  8
0
  6
Continuous
 62
     7
370
    25
100
AcDbLine
 10
-16.4468347662
 20
137.2057200977
 30
0.0
 11
-16.4468347662
 21
212.7384285714
 31
0.0
  0
LINE
  5
D8
330
1F
100
AcDbEntity
  8
0
  6
Continuous
 62
     7
370
    25
100
AcDbLine
 10
-131.86163724
 20
66.2384285714
 30
0.0
 11
-116.86163724
 21
66.2384285714
 31
0.0
  0
LINE
  5
D9
330
1F
100
AcDbEntity
  8
0
  6
Continuous
 62
     7
370
    25
100
AcDbLine
 10
-131.86163724
 20
73.2384285714
 30
0.0
 11
-131.86163724
 21
66.2384285714
 31
0.0
  0
LINE
  5
DA
330
1F
100
AcDbEntity
  8
0
  6
Continuous
 62
     7
370
    25
100
AcDbLine
 10
-110.41482657
 20
73.2384285714
 30
0.0
 11
-131.86163724
 21
73.2384285714
 31
0.0
  0
ARC
  5
DB
330
1F
100
AcDbEntity
  8
0
  6
Continuous
 62
     7
370
    25
100
AcDbCircle
 10
-47.9468347662
 20
75.2384285714
 30
0.0
 40
62.50000000000001
100
AcDbArc
 50
181.833778
 51
178.166222
  0
LINE
  5
DC
330
1F
100
AcDbEntity
  8
0
  6
Continuous
 62
     7
370
    25
100
AcDbLine
 10
-131.86163724
 20
77.2384285714
 30
0.0
 11
-110.41482657
 21
77.2384285714
 31
0.0
  0
LINE
  5
DD
330
1F
100
AcDbEntity
  8
0
  6
Continuous
 62
     7
370
    25
100
AcDbLine
 10
-131.86163724
 20
84.2384285714
 30
0.0
 11
-131.86163724
 21
77.2384285714
 31
0.0
  0
LINE
  5
DE
330
1F
100
AcDbEntity
  8
0
  6
Continuous
 62
     7
370
    25
100
AcDbLine
 10
-116.86163724
 20
84.2384285714
 30
0.0
 11
-131.86163724
 21
84.2384285714
 31
0.0
  0
ARC
  5
DF
330
1F
100
AcDbEntity
  8
0
  6
Continuous
 62
     7
370
    25
100
AcDbCircle
 10
-47.9468347662
 20
75.2384285714
 30
0.0
 40
69.49999999999999
100
AcDbArc
 50
187.4404923436
 51
172.5595076564
  0
LINE
  5
E0
330
1F
100
AcDbEntity
  8
0
  6
Continuous
 62
     7
370
    25
100
AcDbLine
 10
-40.9468347662
 20
159.7384285714
 30
0.0
 11
-54.9468347662
 21
159.7384285714
 31
0.0
  0
LINE
  5
E1
330
1F
100
AcDbEntity
  8
0
  6
Continuous
 62
     7
370
    25
100
AcDbLine
 10
-79.4468347662
 20
212.7384285714
 30
0.0
 11
-16.4468347662
 21
212.7384285714
 31
0.0
  0
LINE
  5
E2
330
1F
100
AcDbEntity
  8
0
  6
Continuous
 62
     7
370
    25
100
AcDbLine
 10
211.1807140607
 20
-33.3068808003
 30
0.0
 11
71.1807140607
 21
-33.3068808003
 31
0.0
  0
CIRCLE
  5
E3
330
1F
100
AcDbEntity
  8
0
  6
Continuous
 62
     7
370
    25
100
AcDbCircle
 10
141.1807140607
 20
-102.8068808003
 30
0.0
 40
25.70000000000002
  0
CIRCLE
  5
E4
330
1F
100
AcDbEntity
  8
0
  6
Continuous
 62
     7
370
    25
100
AcDbCircle
 10
141.1807140607
 20
-102.8068808003
 30
0.0
 40
31.5
  0
CIRCLE
  5
E5
330
1F
100
AcDbEntity
  8
0
  6
Continuous
 62
     7
370
    25
100
AcDbCircle
 10
81.1807140607
 20
-102.8068808003
 30
0.0
 40
4.599999999999994
  0
CIRCLE
  5
E6
330
1F
100
AcDbEntity
  8
0
  6
Continuous
 62
     7
370
    25
100
AcDbCircle
 10
81.1807140607
 20
-102.8068808003
 30
0.0
 40
7.0
  0
CIRCLE
  5
E7
330
1F
100
AcDbEntity
  8
0
  6
Continuous
 62
     7
370
    25
100
AcDbCircle
 10
201.1807140607
 20
-102.8068808003
 30
0.0
 40
4.599999999999994
  0
CIRCLE
  5
E8
330
1F
100
AcDbEntity
  8
0
  6
Continuous
 62
     7
370
    25
100
AcDbCircle
 10
201.1807140607
 20
-102.8068808003
 30
0.0
 40
7.0
  0
CIRCLE
  5
E9
330
1F
100
AcDbEntity
  8
0
  6
Continuous
 62
     7
370
    25
100
AcDbCircle
 10
81.1807140607
 20
-102.8068808003
 30
0.0
 40
1.5
  0
CIRCLE
  5
EA
330
1F
100
AcDbEntity
  8
0
  6
Continuous
 62
     7
370
    25
100
AcDbCircle
 10
81.1807140607
 20
-102.8068808003
 30
0.0
 40
2.0
  0
CIRCLE
  5
EB
330
1F
100
AcDbEntity
  8
0
  6
Continuous
 62
     7
370
    25
100
AcDbCircle
 10
201.1807140607
 20
-102.8068808003
 30
0.0
 40
1.5
  0
CIRCLE
  5
EC
330
1F
100
AcDbEntity
  8
0
  6
Continuous
 62
     7
370
    25
100
AcDbCircle
 10
201.1807140607
 20
-102.8068808003
 30
0.0
 40
2.0
  0
LINE
  5
ED
330
1F
100
AcDbEntity
  8
0
  6
Continuous
 62
     7
370
    25
100
AcDbLine
 10
211.1807140607
 20
-33.3068808003
 30
0.0
 11
211.1807140607
 21
-171.7216832741
 31
0.0
  0
LINE
  5
EE
330
1F
100
AcDbEntity
  8
0
  6
Continuous
 62
     7
370
    25
100
AcDbLine
 10
211.1807140607
 20
-171.7216832741
 30
0.0
 11
71.1807140607
 21
-171.7216832741
 31
0.0
  0
LINE
  5
EF
330
1F
100
AcDbEntity
  8
0
  6
Continuous
 62
     7
370
    25
100
AcDbLine
 10
71.1807140607
 20
-33.3068808003
 30
0.0
 11
71.1807140607
 21
-171.7216832741
 31
0.0
  0
LINE
  5
F0
330
1F
100
AcDbEntity
  8
0
  6
Continuous
 62
     7
370
    25
100
AcDbLine
 10
211.1807140607
 20
-186.7216832741
 30
0.0
 11
71.1807140607
 21
-186.7216832741
 31
0.0
  0
LINE
  5
F1
330
1F
100
AcDbEntity
  8
0
  6
Continuous
 62
     7
370
    25
100
AcDbLine
 10
71.1807140607
 20
-171.7216832741
 30
0.0
 11
71.1807140607
 21
-186.7216832741
 31
0.0
  0
LINE
  5
F2
330
1F
100
AcDbEntity
  8
0
  6
Continuous
 62
     7
370
    25
100
AcDbLine
 10
211.1807140607
 20
-171.7216832741
 30
0.0
 11
211.1807140607
 21
-186.7216832741
 31
0.0
  0
INSERT
  5
FE
330
1F
100
AcDbEntity
  8
FORMAT
100
AcDbBlockReference
  2
SW_CENTERMARKSYMBOL_1
 10
141.1807140607
 20
-102.8068808003
 30
0.0
  0
INSERT
  5
10A
330
1F
100
AcDbEntity
  8
FORMAT
100
AcDbBlockReference
  2
SW_CENTERMARKSYMBOL_2
 10
81.1807140607
 20
-102.8068808003
 30
0.0
  0
INSERT
  5
116
330
1F
100
AcDbEntity
  8
FORMAT
100
AcDbBlockReference
  2
SW_CENTERMARKSYMBOL_3
 10
201.1807140607
 20
-102.8068808003
 30
0.0
  0
LINE
  5
117
330
1F
100
AcDbEntity
  8
0
  6
Continuous
 62
     7
370
    25
100
AcDbLine
 10
464.1951897894
 20
-193.5680455543
 30
0.0
 11
492.4794610368
 21
-177.2398833178
 31
0.0
  0
LINE
  5
118
330
1F
100
AcDbEntity
  8
0
  6
Continuous
 62
     7
370
    25
100
AcDbLine
 10
393.4845116707
 20
-234.3884511454
 30
0.0
 11
421.7687829182
 21
-218.0602889089
 31
0.0
  0
LINE
  5
119
330
1F
100
AcDbEntity
  8
0
  6
Continuous
 62
     7
370
    25
100
AcDbLine
 10
422.9851091186
 20
-56.8590914469
 30
0.0
 11
323.9901597525
 21
-114.0076592745
 31
0.0
  0
LINE
  5
11A
330
1F
100
AcDbEntity
  8
0
  6
Continuous
 62
     7
370
    25
100
AcDbLine
 10
443.6612172659
 20
-52.1338293371
 30
0.0
 11
443.6612172659
 21
-54.5527839723
 31
0.0
  0
LINE
  5
11B
330
1F
100
AcDbEntity
  8
0
  6
Continuous
 62
     7
370
    25
100
AcDbLine
 10
457.6612172659
 20
-60.2589337206
 30
0.0
 11
457.6612172659
 21
-52.1338293371
 31
0.0
  0
LINE
  5
11C
330
1F
100
AcDbEntity
  8
0
  6
Continuous
 62
     7
370
    25
100
AcDbLine
 10
376.7348103947
 20
-33.3494096618
 30
0.0
 11
376.7348103947
 21
-83.5588205805
 31
0.0
  0
LINE
  5
11D
330
1F
100
AcDbEntity
  8
0
  6
Continuous
 62
     7
370
    25
100
AcDbLine
 10
439.7348103947
 20
-53.8526648521
 30
0.0
 11
439.7348103947
 21
-33.3494096618
 31
0.0
  0
LINE
  5
11E
330
1F
100
AcDbEntity
  8
0
  6
Continuous
 62
     7
370
    25
100
AcDbLine
 10
398.3955592066
 20
-90.1439919685
 30
0.0
 11
409.0021609244
 21
-96.2670528072
 31
0.0
  0
LINE
  5
11F
330
1F
100
AcDbEntity
  8
0
  6
Continuous
 62
     7
370
    25
100
AcDbLine
 10
398.3955592066
 20
-84.4282062853
 30
0.0
 11
398.3955592066
 21
-90.1439919685
 31
0.0
  0
LINE
  5
120
330
1F
100
AcDbEntity
  8
0
  6
Continuous
 62
     7
370
    25
100
AcDbLine
 10
413.5607444662
 20
-93.1828813872
 30
0.0
 11
398.3955592066
 21
-84.4282062853
 31
0.0
  0
LWPOLYLINE
  5
121
330
1F
100
AcDbEntity
  8
0
  6
Continuous
 62
     7
370
    25
100
AcDbPolyline
 90
      110
 70
   128
 43
0.0
 10
413.5607444662
 20
-89.9167181396
 10
413.7132708312
 20
-87.0986797956
 10
414.0090605004
 20
-84.3781186833
 10
414.4471508032
 20
-81.7638890804
 10
415.0261159405
 20
-79.2644992005
 10
415.7440716255
 20
-76.8880835021
 10
416.5986812155
 20
-74.642376215
 10
417.5871633171
 20
-72.534686168
 10
418.7063008386
 20
-70.5718730023
 10
419.9524514597
 20
-68.760324846
 10
421.3215594865
 20
-67.1059375233
 10
422.8091690505
 20
-65.6140953665
 10
424.4104386106
 20
-64.2896536917
 10
426.1201567106
 20
-63.1369229974
 10
427.93275894
 20
-62.1596549353
 10
429.842346044
 20
-61.3610301002
 10
431.8427031228
 20
-60.7436476788
 10
433.9273198589
 20
-60.3095169901
 10
436.0894117049
 20
-60.0600509462
 10
438.3219419649
 20
-59.9960614538
 10
440.6176446956
 20
-60.1177567716
 10
442.969048354
 20
-60.4247408327
 10
445.3685001141
 20
-60.9160145338
 10
447.8081907735
 20
-61.5899789862
 10
450.2801801694
 20
-62.4444407203
 10
452.77642302
 20
-63.476618824
 10
455.288795109
 20
-64.6831539934
 10
457.8091197261
 20
-66.0601194659
 10
460.3291942789
 20
-67.6030338004
 10
462.8408169887
 20
-69.3068754623
 10
465.3358135843
 20
-71.1660991663
 10
467.8060639053
 20
-73.1746539245
 10
470.2435283298
 20
-75.3260027391
 10
472.6402739406
 20
-77.6131438782
 10
474.9885003426
 20
-80.0286336632
 10
477.2805650504
 20
-82.5646106947
 10
479.5090083613
 20
-85.2128214384
 10
481.6665776333
 20
-87.9646470865
 10
483.7462508894
 20
-90.8111316086
 10
485.7412596714
 20
-93.7430108993
 10
487.645111068
 20
-96.7507429297
 10
489.4516088469
 20
-99.8245388021
 10
491.1548736207
 20
-102.9543946087
 10
492.7493619816
 20
-106.1301239905
 10
494.2298845434
 20
-109.3413912894
 10
495.5916228302
 20
-112.5777451863
 10
496.830144959
 20
-115.8286527159
 10
497.9414200633
 20
-119.0835335467
 10
498.9218314117
 20
-122.3317944162
 10
499.7681881793
 20
-125.5628636068
 10
500.4777358323
 20
-128.7662253526
 10
501.0481650926
 20
-131.9314540638
 10
501.4776194538
 20
-135.0482482574
 10
501.7647012234
 20
-138.1064640845
 10
501.9084760714
 20
-141.0961483439
 10
501.9084760714
 20
-144.0075708756
 10
501.7647012234
 20
-146.8312562289
 10
501.4776194538
 20
-149.5580145
 10
501.0481650926
 20
-152.1789712423
 10
500.4777358323
 20
-154.6855963484
 10
499.7681881793
 20
-157.0697318118
 10
498.9218314117
 20
-159.3236182784
 10
497.9414200633
 20
-161.4399202994
 10
496.830144959
 20
-163.4117502054
 10
495.5916228302
 20
-165.2326905228
 10
494.2298845434
 20
-166.8968148595
 10
492.7493619816
 20
-168.3987071937
 10
491.1548736207
 20
-169.7334794999
 10
489.4516088469
 20
-170.8967876579
 10
487.645111068
 20
-171.8848455908
 10
485.7412596714
 20
-172.6944375874
 10
483.7462508894
 20
-173.3229287675
 10
481.6665776333
 20
-173.7682736577
 10
479.5090083613
 20
-174.0290228485
 10
477.2805650504
 20
-174.1043277112
 10
474.9885003426
 20
-173.9939431605
 10
472.6402739406
 20
-173.6982284513
 10
470.2435283298
 20
-173.2181460103
 10
467.8060639053
 20
-172.555258303
 10
465.3358135843
 20
-171.711722749
 10
462.8408169887
 20
-170.6902847004
 10
460.3291942789
 20
-169.4942685067
 10
457.8091197261
 20
-168.1275666955
 10
455.288795109
 20
-166.5946273042
 10
452.77642302
 20
-164.9004394033
 10
450.2801801694
 20
-163.0505168588
 10
447.8081907735
 20
-161.0508803877
 10
445.3685001141
 20
-158.9080379621
 10
442.969048354
 20
-156.6289636295
 10
440.6176446956
 20
-154.2210748144
 10
438.3219419649
 20
-151.6922081781
 10
436.0894117049
 20
-149.0505941137
 10
433.9273198589
 20
-146.3048299596
 10
431.8427031228
 20
-143.4638520187
 10
429.842346044
 20
-140.5369064745
 10
427.93275894
 20
-137.5335192988
 10
426.1201567106
 20
-134.4634652488
 10
424.4104386106
 20
-131.336736054
 10
422.8091690505
 20
-128.1635078977
 10
421.3215594865
 20
-124.9541082975
 10
419.9524514597
 20
-121.718982494
 10
418.7063008386
 20
-118.4686594557
 10
417.5871633171
 20
-115.2137176115
 10
416.5986812155
 20
-111.9647504228
 10
415.7440716255
 20
-108.7323319058
 10
415.0261159405
 20
-105.5269822179
 10
414.4471508032
 20
-102.3591334189
 10
414.0090605004
 20
-99.2390955189
 10
413.7132708312
 20
-96.1770229239
 10
413.5607444662
 20
-93.1828813872
  0
LINE
  5
122
330
1F
100
AcDbEntity
  8
0
  6
Continuous
 62
     7
370
    25
100
AcDbLine
 10
398.3955592066
 20
-81.1620430378
 30
0.0
 11
413.5607444662
 21
-89.9167181396
 31
0.0
  0
LINE
  5
123
330
1F
100
AcDbEntity
  8
0
  6
Continuous
 62
     7
370
    25
100
AcDbLine
 10
398.3955592066
 20
-75.4462573546
 30
0.0
 11
398.3955592066
 21
-81.1620430378
 31
0.0
  0
LINE
  5
124
330
1F
100
AcDbEntity
  8
0
  6
Continuous
 62
     7
370
    25
100
AcDbLine
 10
409.0021609244
 20
-81.5693181932
 30
0.0
 11
398.3955592066
 21
-75.4462573546
 31
0.0
  0
LWPOLYLINE
  5
125
330
1F
100
AcDbEntity
  8
0
  6
Continuous
 62
     7
370
    25
100
AcDbPolyline
 90
      113
 70
   128
 43
0.0
 10
409.0021609244
 20
-96.2670528072
 10
409.414711856
 20
-99.5194758457
 10
409.9669822477
 20
-102.8225902494
 10
410.6573751047
 20
-106.1668444343
 10
411.4838940246
 20
-109.5425678527
 10
412.4441489705
 20
-112.939998958
 10
413.5353631826
 20
-116.3493134312
 10
414.7543812072
 20
-119.7606525907
 10
416.0976780216
 20
-123.1641518999
 10
417.5613692275
 20
-126.5499694927
 10
419.141222283
 20
-129.9083146331
 10
420.8326687425
 20
-133.2294760269
 10
422.6308174664
 20
-136.5038499036
 10
424.5304687654
 20
-139.7219677879
 10
426.5261294362
 20
-142.8745238795
 10
428.6120286462
 20
-145.9524019623
 10
430.7821346206
 20
-148.9467017659
 10
433.0301720851
 20
-151.8487647025
 10
435.3496404112
 20
-154.6501989047
 10
437.733832415
 20
-157.3429034923
 10
440.1758537514
 20
-159.9190919973
 10
442.6686428507
 20
-162.3713148804
 10
445.204991339
 20
-164.6924810723
 10
447.7775648816
 20
-166.8758784791
 10
450.3789243926
 20
-168.9151933917
 10
453.0015475457
 20
-170.8045287427
 10
455.6378505268
 20
-172.5384211594
 10
458.2802099641
 20
-174.1118567618
 10
460.9209849724
 20
-175.5202856613
 10
463.5525392479
 20
-176.7596351177
 10
466.1672631506
 20
-177.8263213162
 10
468.7575957086
 20
-178.7172597304
 10
471.3160464823
 20
-179.4298740426
 10
473.8352172242
 20
-179.9621035926
 10
476.3078232726
 20
-180.3124093375
 10
478.7267146165
 20
-180.4797783014
 10
481.084896571
 20
-180.4637265053
 10
483.3755500043
 20
-180.2643003659
 10
485.5920510559
 20
-179.8820765618
 10
487.7279902911
 20
-179.318160366
 10
489.777191235
 20
-178.5741824494
 10
491.733728233
 20
-177.6522941658
 10
493.5919435859
 20
-176.5551613307
 10
495.3464639104
 20
-175.2859565126
 10
496.992215677
 20
-173.8483498586
 10
498.5244398812
 20
-172.2464984822
 10
499.9387058049
 20
-170.4850344415
 10
501.2309238292
 20
-168.569051345
 10
502.3973572596
 20
-166.5040896226
 10
503.4346331318
 20
-164.2961205041
 10
504.3397519651
 20
-161.9515287527
 10
505.1100964363
 20
-159.4770942015
 10
505.7434389476
 20
-156.8799721491
 10
506.2379480685
 20
-154.1676726683
 10
506.5921938319
 20
-151.3480388894
 10
506.8051518687
 20
-148.42922432
 10
506.8762063702
 20
-145.4196692682
 10
506.8051518687
 20
-142.3280764352
 10
506.5921938319
 20
-139.1633857502
 10
506.2379480685
 20
-135.9347485187
 10
505.7434389476
 20
-132.6515009598
 10
505.1100964363
 20
-129.3231372088
 10
504.3397519651
 20
-125.9592818631
 10
503.4346331318
 20
-122.5696621506
 10
502.3973572596
 20
-119.1640798021
 10
501.2309238292
 20
-115.752382707
 10
499.9387058049
 20
-112.344436437
 10
498.5244398812
 20
-108.9500957175
 10
496.992215677
 20
-105.5791759306
 10
495.3464639104
 20
-102.2414247327
 10
493.5919435859
 20
-98.9464938666
 10
491.733728233
 20
-95.7039112522
 10
489.777191235
 20
-92.5230534343
 10
487.7279902911
 20
-89.4131184688
 10
485.5920510559
 20
-86.3830993245
 10
483.3755500043
 20
-83.4417578786
 10
481.084896571
 20
-80.5975995798
 10
478.7267146165
 20
-77.8588488531
 10
476.3078232726
 20
-75.2334253177
 10
473.8352172242
 20
-72.7289208855
 10
471.3160464823
 20
-70.3525778076
 10
468.7575957086
 20
-68.1112677325
 10
466.1672631506
 20
-66.0114718349
 10
463.5525392479
 20
-64.0592620743
 10
460.9209849724
 20
-62.2602836368
 10
458.2802099641
 20
-60.6197386111
 10
455.6378505268
 20
-59.1423709453
 10
453.0015475457
 20
-57.8324527292
 10
450.3789243926
 20
-56.6937718408
 10
447.7775648816
 20
-55.7296209926
 10
445.204991339
 20
-54.9427882102
 10
442.6686428507
 20
-54.3355487705
 10
440.1758537514
 20
-53.9096586218
 10
437.733832415
 20
-53.6663493066
 10
435.3496404112
 20
-53.6063244001
 10
433.0301720851
 20
-53.7297574757
 10
430.7821346206
 20
-54.0362916033
 10
428.6120286462
 20
-54.5250403809
 10
426.5261294362
 20
-55.1945904986
 10
424.5304687654
 20
-56.0430058246
 10
422.6308174664
 20
-57.0678330047
 10
420.8326687425
 20
-58.2661085558
 10
419.141222283
 20
-59.6343674362
 10
417.5613692275
 20
-61.1686530648
 10
416.0976780216
 20
-62.8645287628
 10
414.7543812072
 20
-64.7170905827
 10
413.5353631826
 20
-66.7209814893
 10
412.4441489705
 20
-68.8704068508
 10
411.4838940246
 20
-71.1591511945
 10
410.6573751047
 20
-73.5805961804
 10
409.9669822477
 20
-76.1277397396
 10
409.414711856
 20
-78.7932163215
 10
409.0021609244
 20
-81.5693181932
  0
LINE
  5
126
330
1F
100
AcDbEntity
  8
0
  6
Continuous
 62
     7
370
    25
100
AcDbLine
 10
409.0021609244
 20
-96.2670528072
 30
0.0
 11
310.0072115583
 21
-153.4156206348
 31
0.0
  0
LWPOLYLINE
  5
127
330
1F
100
AcDbEntity
  8
0
  6
Continuous
 62
     7
370
    25
100
AcDbPolyline
 90
       43
 70
   128
 43
0.0
 10
310.0072115583
 20
-153.4156206348
 10
310.4197624898
 20
-156.6680436733
 10
310.9720328816
 20
-159.971158077
 10
311.6624257386
 20
-163.3154122619
 10
312.4889446584
 20
-166.6911356803
 10
313.4491996044
 20
-170.0885667855
 10
314.5404138164
 20
-173.4978812588
 10
315.759431841
 20
-176.9092204183
 10
317.1027286555
 20
-180.3127197275
 10
318.5664198614
 20
-183.6985373203
 10
320.1462729169
 20
-187.0568824607
 10
321.8377193764
 20
-190.3780438545
 10
323.6358681002
 20
-193.6524177312
 10
325.5355193993
 20
-196.8705356155
 10
327.5311800701
 20
-200.0230917071
 10
329.6170792801
 20
-203.1009697899
 10
331.7871852545
 20
-206.0952695935
 10
334.0352227189
 20
-208.9973325301
 10
336.3546910451
 20
-211.7987667323
 10
338.7388830489
 20
-214.4914713198
 10
341.1809043852
 20
-217.0676598249
 10
343.6736934846
 20
-219.519882708
 10
346.2100419728
 20
-221.8410488999
 10
348.7826155155
 20
-224.0244463067
 10
351.3839750264
 20
-226.0637612193
 10
354.0065981795
 20
-227.9530965703
 10
356.6429011607
 20
-229.686988987
 10
359.285260598
 20
-231.2604245894
 10
361.9260356063
 20
-232.6688534889
 10
364.5575898818
 20
-233.9082029453
 10
367.1723137845
 20
-234.9748891437
 10
369.7626463425
 20
-235.865827558
 10
372.3210971162
 20
-236.5784418702
 10
374.8402678581
 20
-237.1106714202
 10
377.3128739065
 20
-237.460977165
 10
379.7317652503
 20
-237.628346129
 10
382.0899472049
 20
-237.6122943329
 10
384.3806006382
 20
-237.4128681935
 10
386.5971016898
 20
-237.0306443894
 10
388.733040925
 20
-236.4667281935
 10
390.7822418689
 20
-235.722750277
 10
392.7387788669
 20
-234.8008619934
 10
393.4845116707
 20
-234.3884511454
  0
ARC
  5
128
330
1F
100
AcDbEntity
  8
0
  6
Continuous
 62
     7
370
    25
100
AcDbCircle
 10
337.0037292109
 20
-135.9347873465
 30
0.0
 40
25.49807709482199
100
AcDbArc
 50
120.688781119
 51
151.7034908279
  0
LINE
  5
129
330
1F
100
AcDbEntity
  8
0
  6
Continuous
 62
     7
370
    25
100
AcDbLine
 10
338.3890561315
 20
-137.9603270922
 30
0.0
 11
380.8154630027
 21
-113.4680837375
 31
0.0
  0
LWPOLYLINE
  5
12A
330
1F
100
AcDbEntity
  8
0
  6
Continuous
 62
     7
370
    25
100
AcDbPolyline
 90
       54
 70
   128
 43
0.0
 10
435.6541577867
 20
-194.1102750925
 10
435.2032934417
 20
-196.8595745424
 10
434.612864807
 20
-199.4959354962
 10
433.8845821331
 20
-202.0117214041
 10
433.020554982
 20
-204.3996449772
 10
432.0232861166
 20
-206.6527892958
 10
430.8956642511
 20
-208.7646278451
 10
429.6409556833
 20
-210.7290434202
 10
428.2627948339
 20
-212.5403458455
 10
426.7651737184
 20
-214.1932884565
 10
425.1524303838
 20
-215.6830832979
 10
423.4292363433
 20
-217.0054149925
 10
421.6005830442
 20
-218.1564532408
 10
419.6717674098
 20
-219.1328639164
 10
417.6483764962
 20
-219.9318187234
 10
415.5362713087
 20
-220.5510033892
 10
413.3415698244
 20
-220.9886243679
 10
411.0706292711
 20
-221.2434140354
 10
408.7300277125
 20
-221.3146343617
 10
406.3265449942
 20
-221.202079048
 10
403.8671431049
 20
-220.906074125
 10
401.3589460103
 20
-220.4274770079
 10
398.8092190174
 20
-219.7676740134
 10
396.2253477297
 20
-218.9285763433
 10
393.6148166541
 20
-217.9126145493
 10
390.9851875209
 20
-216.7227314918
 10
388.3440773801
 20
-215.3623738163
 10
385.6991365381
 20
-213.835481969
 10
383.0580263973
 20
-212.1464787834
 10
380.428397264
 20
-210.300256669
 10
377.8178661884
 20
-208.3021634391
 10
375.2339949008
 20
-206.1579868212
 10
372.6842679078
 20
-203.8739376914
 10
370.1760708132
 20
-201.456632084
 10
367.716668924
 20
-198.9130720275
 10
365.3131862057
 20
-196.2506252622
 10
362.9725846471
 20
-193.4770038987
 10
360.7016440938
 20
-190.6002420785
 10
358.5069426095
 20
-187.6286727027
 10
356.3948374219
 20
-184.5709032941
 10
354.3714465084
 20
-181.4357910648
 10
352.442630874
 20
-178.23241726
 10
350.6139775749
 20
-174.9700608532
 10
348.8907835344
 20
-171.6581716684
 10
347.2780401998
 20
-168.3063430073
 10
345.7804190842
 20
-164.9242838615
 10
344.4022582348
 20
-161.521790789
 10
343.1475496671
 20
-158.108719537
 10
342.0199278015
 20
-154.694956494
 10
341.0226589361
 20
-151.2903900522
 10
340.1586317851
 20
-147.9048819646
 10
339.4303491112
 20
-144.5482387796
 10
338.8399204765
 20
-141.2301834345
 10
338.3890561315
 20
-137.9603270922
  0
LINE
  5
12B
330
1F
100
AcDbEntity
  8
0
  6
Continuous
 62
     7
370
    25
100
AcDbLine
 10
471.4721168405
 20
-173.4330074588
 30
0.0
 11
471.4038964564
 21
-173.4723902482
 31
0.0
  0
LINE
  5
12C
330
1F
100
AcDbEntity
  8
0
  6
Continuous
 62
     7
370
    25
100
AcDbLine
 10
436.5111773915
 20
-193.6155282056
 30
0.0
 11
435.6541577867
 21
-194.1102750925
 31
0.0
  0
LWPOLYLINE
  5
12D
330
1F
100
AcDbEntity
  8
0
  6
Continuous
 62
     7
370
    25
100
AcDbPolyline
 90
       43
 70
   128
 43
0.0
 10
380.8154630027
 20
-113.4680837375
 10
381.2663273477
 20
-116.7379400798
 10
381.8567559824
 20
-120.0559954249
 10
382.5850386563
 20
-123.41263861
 10
383.4490658073
 20
-126.7981466975
 10
384.4463346727
 20
-130.2027131393
 10
385.5739565383
 20
-133.6164761824
 10
386.828665106
 20
-137.0295474343
 10
388.2068259554
 20
-140.4320405069
 10
389.704447071
 20
-143.8140996526
 10
391.3171904056
 20
-147.1659283137
 10
393.0403844461
 20
-150.4778174985
 10
394.8690377452
 20
-153.7401739053
 10
396.7978533796
 20
-156.9435477101
 10
398.8212442931
 20
-160.0786599394
 10
400.9333494807
 20
-163.136429348
 10
403.1280509649
 20
-166.1079987238
 10
405.3989915183
 20
-168.984760544
 10
407.7395930769
 20
-171.7583819075
 10
410.1430757951
 20
-174.4208286728
 10
412.6024776844
 20
-176.9643887293
 10
415.110674779
 20
-179.3816943367
 10
417.660401772
 20
-181.6657434665
 10
420.2442730596
 20
-183.8099200844
 10
422.8548041352
 20
-185.8080133143
 10
425.4844332685
 20
-187.6542354288
 10
428.1255434093
 20
-189.3432386143
 10
430.7704842513
 20
-190.8701304616
 10
433.4115943921
 20
-192.2304881371
 10
436.0412235253
 20
-193.4203711946
 10
438.6517546009
 20
-194.4363329887
 10
441.2356258886
 20
-195.2754306587
 10
443.7853528815
 20
-195.9352336533
 10
446.2935499761
 20
-196.4138307703
 10
448.7529518654
 20
-196.7098356933
 10
451.1564345837
 20
-196.822391007
 10
453.4970361423
 20
-196.7511706808
 10
455.7679766956
 20
-196.4963810132
 10
457.9626781799
 20
-196.0587600346
 10
460.0747833674
 20
-195.4395753687
 10
462.098174281
 20
-194.6406205617
 10
464.0269899153
 20
-193.6642098861
 10
464.1951897894
 20
-193.5680455543
  0
SPLINE
  5
12E
330
1F
100
AcDbEntity
  8
0
  6
Continuous
 62
     7
370
    25
100
AcDbSpline
210
0.0
220
0.0
230
1.0
 70
     8
 71
     3
 72
    21
 73
    17
 74
     0
 42
0.00000001
 43
0.00000001
 40
0.0
 40
0.0
 40
0.0
 40
0.0
 40
0.0754822746940248
 40
0.1509851312410003
 40
0.2262611475040648
 40
0.3015620639551474
 40
0.3809924364661399
 40
0.4604185241518576
 40
0.5155808714557306
 40
0.5709283111298781
 40
0.62606677312481
 40
0.7045938310693323
 40
0.7831105884768761
 40
0.8569568614435206
 40
0.9308213647711088
 40
1.0
 40
1.0
 40
1.0
 40
1.0
 10
426.407454671171
 20
-109.5950019935108
 30
0.0
 10
427.3335973885266
 20
-108.9821262710247
 30
0.0
 10
429.1861353558132
 20
-107.7562077124085
 30
0.0
 10
431.2973928731961
 20
-105.3471076752952
 30
0.0
 10
432.833634565316
 20
-102.6325376533992
 30
0.0
 10
433.7691599644602
 20
-99.64451613424744
 30
0.0
 10
434.0451820679334
 20
-96.49604227221157
 30
0.0
 10
433.6767846466449
 20
-93.63527419086932
 30
0.0
 10
432.8690603833862
 20
-91.20492657879161
 30
0.0
 10
431.834968702994
 20
-89.20093409229074
 30
0.0
 10
430.2897520893333
 20
-87.09232916966093
 30
0.0
 10
428.0589775002075
 20
-85.04474812554027
 30
0.0
 10
425.0983908746327
 20
-83.28820265356859
 30
0.0
 10
421.7555427885898
 20
-82.11397142248984
 30
0.0
 10
418.2639508138035
 20
-81.43391531676589
 30
0.0
 10
415.7980504036331
 20
-81.39012485622914
 30
0.0
 10
414.6054897068569
 20
-81.36894687924577
 30
0.0
  0
SPLINE
  5
12F
330
1F
100
AcDbEntity
  8
0
  6
Continuous
 62
     7
370
    25
100
AcDbSpline
210
0.0
220
0.0
230
1.0
 70
     8
 71
     3
 72
    12
 73
     8
 74
     0
 42
0.00000001
 43
0.00000001
 40
0.0
 40
0.0
 40
0.0
 40
0.0
 40
0.1262284332122327
 40
0.3810359295807989
 40
0.6367566956936717
 40
0.8914523700058409
 40
1.0
 40
1.0
 40
1.0
 40
1.0
 10
416.6898883565071
 20
-112.1935992869138
 30
0.0
 10
417.147282590305
 20
-112.1768576890413
 30
0.0
 10
418.527982901835
 20
-112.1263211328501
 30
0.0
 10
420.7193865304706
 20
-111.7554133365489
 30
0.0
 10
423.219936615662
 20
-111.0863043386366
 30
0.0
 10
425.0966267453614
 20
-110.3194947961246
 30
0.0
 10
426.1058650170846
 20
-109.761690183033
 30
0.0
 10
426.407454671171
 20
-109.5950019935108
 30
0.0
  0
LINE
  5
130
330
1F
100
AcDbEntity
  8
0
  6
Continuous
 62
     7
370
    25
100
AcDbLine
 10
413.5607444662
 20
-89.9167181396
 30
0.0
 11
410.7318576051
 21
-91.5497997634
 31
0.0
  0
LWPOLYLINE
  5
131
330
1F
100
AcDbEntity
  8
0
  6
Continuous
 62
     7
370
    25
100
AcDbPolyline
 90
       33
 70
   128
 43
0.0
 10
365.8154936904
 20
-127.9091835894
 10
366.3408642182
 20
-128.3146669939
 10
368.8111145391
 20
-130.323221752
 10
371.2485789637
 20
-132.4745705667
 10
373.6453245745
 20
-134.7617117058
 10
375.9935509764
 20
-137.1772014907
 10
378.2856156843
 20
-139.7131785223
 10
380.5140589952
 20
-142.361389266
 10
382.6716282672
 20
-145.1132149141
 10
384.7513015233
 20
-147.9596994361
 10
386.7463103053
 20
-150.8915787269
 10
388.6501617019
 20
-153.8993107573
 10
390.4566594808
 20
-156.9731066296
 10
392.1599242546
 20
-160.1029624363
 10
393.7544126155
 20
-163.2786918181
 10
395.2349351772
 20
-166.489959117
 10
396.5966734641
 20
-169.7263130139
 10
397.8351955929
 20
-172.9772205435
 10
398.9464706972
 20
-176.2321013743
 10
399.9268820456
 20
-179.4803622438
 10
400.7732388132
 20
-182.7114314344
 10
401.4827864662
 20
-185.9147931802
 10
402.0532157265
 20
-189.0800218914
 10
402.4826700877
 20
-192.196816085
 10
402.7697518573
 20
-195.2550319121
 10
402.9135267053
 20
-198.2447161714
 10
402.9135267053
 20
-201.1561387032
 10
402.7697518573
 20
-203.9798240564
 10
402.4826700877
 20
-206.7065823276
 10
402.0532157265
 20
-209.3275390699
 10
401.4827864662
 20
-211.8341641759
 10
400.7732388132
 20
-214.2182996394
 10
400.7446607626
 20
-214.3031280055
  0
LINE
  5
132
330
1F
100
AcDbEntity
  8
0
  6
Continuous
 62
     7
370
    25
100
AcDbLine
 10
381.6156640893
 20
-118.7879393692
 30
0.0
 11
343.3967860425
 21
-140.8512280353
 31
0.0
  0
ARC
  5
133
330
1F
100
AcDbEntity
  8
0
  6
Continuous
 62
     7
370
    25
100
AcDbCircle
 10
433.8319077573
 20
-160.9030840081
 30
0.0
 40
39.67076848215593
100
AcDbArc
 50
341.5123070323
 51
351.5579209918
  0
LINE
  5
134
330
1F
100
AcDbEntity
  8
0
  6
Continuous
 62
     7
370
    25
100
AcDbLine
 10
430.6464278756
 20
-191.2193741494
 30
0.0
 11
431.0182387398
 21
-191.0047323063
 31
0.0
  0
LINE
  5
135
330
1F
100
AcDbEntity
  8
0
  6
Continuous
 62
     7
370
    25
100
AcDbLine
 10
464.7962625359
 20
-171.5050942302
 30
0.0
 11
473.0728347468
 21
-166.7271307947
 31
0.0
  0
LWPOLYLINE
  5
136
330
1F
100
AcDbEntity
  8
0
  6
Continuous
 62
     7
370
    25
100
AcDbPolyline
 90
       50
 70
   128
 43
0.0
 10
343.3967860425
 20
-140.8512280353
 10
343.8757752583
 20
-144.0120480618
 10
344.4976506145
 20
-147.2187611421
 10
345.2603526454
 20
-150.4607475978
 10
346.1613555088
 20
-153.7272709356
 10
347.1976753519
 20
-157.0075134035
 10
348.3658801921
 20
-160.2906118155
 10
349.6621012829
 20
-163.565693528
 10
351.0820459262
 20
-166.8219124459
 10
352.6210116885
 20
-170.0484849423
 10
354.2739019736
 20
-173.2347255704
 10
356.0352429013
 20
-176.3700824505
 10
357.8992014353
 20
-179.4441722146
 10
359.8596047001
 20
-182.4468143934
 10
361.9099604242
 20
-185.3680651304
 10
364.0434784404
 20
-188.1982501136
 10
366.2530931725
 20
-190.9279966135
 10
368.5314870348
 20
-193.5482645228
 10
370.8711146657
 20
-196.0503762949
 10
373.2642279155
 20
-198.4260456811
 10
375.7029015061
 20
-200.6674051722
 10
378.179059277
 20
-202.7670320531
 10
380.6845009314
 20
-204.7179729854
 10
383.2109291931
 20
-206.5137670337
 10
385.7499772842
 20
-208.1484670632
 10
388.293236634
 20
-209.6166594345
 10
390.8322847251
 20
-210.9134819317
 10
393.3587129867
 20
-212.0346398652
 10
395.8641546412
 20
-212.9764202939
 10
398.3403124121
 20
-213.7357043216
 10
400.7789860026
 20
-214.3099774258
 10
403.1720992524
 20
-214.6973377851
 10
405.5117268833
 20
-214.8965025773
 10
407.7901207457
 20
-214.906812228
 10
409.9997354778
 20
-214.7282325948
 10
412.1332534939
 20
-214.36135508
 10
414.1836092181
 20
-213.8073946729
 10
416.1440124829
 20
-213.0681859252
 10
418.0079710169
 20
-212.146176876
 10
419.7693119446
 20
-211.0444209447
 10
421.4222022297
 20
-209.7665668186
 10
422.961167992
 20
-208.31684637
 10
424.3811126353
 20
-206.7000606409
 10
425.6773337261
 20
-204.9215639442
 10
426.8455385662
 20
-202.9872461309
 10
427.8818584093
 20
-200.9035130855
 10
428.7828612728
 20
-198.677265511
 10
429.5455633036
 20
-196.315876076
 10
430.1674386599
 20
-193.8271649989
 10
430.6464278756
 20
-191.2193741494
  0
LINE
  5
137
330
1F
100
AcDbEntity
  8
0
  6
Continuous
 62
     7
370
    25
100
AcDbLine
 10
398.3955592066
 20
-90.1439919685
 30
0.0
 11
299.4006098405
 21
-147.2925597961
 31
0.0
  0
LINE
  5
138
330
1F
100
AcDbEntity
  8
0
  6
Continuous
 62
     7
370
    25
100
AcDbLine
 10
299.4006098405
 20
-147.2925597961
 30
0.0
 11
310.0072115583
 21
-153.4156206348
 31
0.0
  0
LINE
  5
139
330
1F
100
AcDbEntity
  8
0
  6
Continuous
 62
     7
370
    25
100
AcDbLine
 10
398.3955592066
 20
-84.4282062853
 30
0.0
 11
299.4006098405
 21
-141.5767741129
 31
0.0
  0
LINE
  5
13A
330
1F
100
AcDbEntity
  8
0
  6
Continuous
 62
     7
370
    25
100
AcDbLine
 10
299.4006098405
 20
-141.5767741129
 30
0.0
 11
299.4006098405
 21
-147.2925597961
 31
0.0
  0
LINE
  5
13B
330
1F
100
AcDbEntity
  8
0
  6
Continuous
 62
     7
370
    25
100
AcDbLine
 10
398.3955592066
 20
-75.4462573546
 30
0.0
 11
299.4006098405
 21
-132.5948251822
 31
0.0
  0
LINE
  5
13C
330
1F
100
AcDbEntity
  8
0
  6
Continuous
 62
     7
370
    25
100
AcDbLine
 10
398.3955592066
 20
-81.1620430378
 30
0.0
 11
299.4006098405
 21
-138.3106108654
 31
0.0
  0
LINE
  5
13D
330
1F
100
AcDbEntity
  8
0
  6
Continuous
 62
     7
370
    25
100
AcDbLine
 10
299.4006098405
 20
-132.5948251822
 30
0.0
 11
299.4006098405
 21
-138.3106108654
 31
0.0
  0
LINE
  5
13E
330
1F
100
AcDbEntity
  8
0
  6
Continuous
 62
     7
370
    25
100
AcDbLine
 10
299.4006098405
 20
-138.3106108654
 30
0.0
 11
302.2294967015
 21
-139.9436924891
 31
0.0
  0
LINE
  5
13F
330
1F
100
AcDbEntity
  8
0
  6
Continuous
 62
     7
370
    25
100
AcDbLine
 10
343.3967860425
 20
-140.8512280353
 30
0.0
 11
338.3890561315
 21
-137.9603270922
 31
0.0
  0
LINE
  5
140
330
1F
100
AcDbEntity
  8
0
  6
Continuous
 62
     7
370
    25
100
AcDbLine
 10
435.6541577867
 20
-194.1102750925
 30
0.0
 11
430.6464278756
 21
-191.2193741494
 31
0.0
  0
ARC
  5
141
330
1F
100
AcDbEntity
  8
0
  6
Continuous
 62
     7
370
    25
100
AcDbCircle
 10
447.0911365569
 20
-52.4305942481
 30
0.0
 40
3.442733761909763
100
AcDbArc
 50
113.6249132
 51
175.0549458424
  0
LWPOLYLINE
  5
142
330
1F
100
AcDbEntity
  8
0
  6
Continuous
 62
     7
370
    25
100
AcDbPolyline
 90
       15
 70
   128
 43
0.0
 10
457.6612172659
 20
-52.1338293371
 10
457.5840840854
 20
-51.5355868306
 10
457.3093696178
 20
-50.868782601
 10
456.8433999112
 20
-50.2383714627
 10
456.1995800658
 20
-49.6624891963
 10
455.3964316064
 20
-49.1577028863
 10
454.4570596517
 20
-48.7385343156
 10
453.4084882227
 20
-48.4170422009
 10
452.2808828102
 20
-48.202475285
 10
451.1066825688
 20
-48.1010062674
 10
449.9196671018
 20
-48.1155542269
 10
448.7539846829
 20
-48.2457006453
 10
447.6431698729
 20
-48.4877014471
 10
446.6191787914
 20
-48.8345947097
 10
445.7114697976
 20
-49.2764009457
  0
LWPOLYLINE
  5
143
330
1F
100
AcDbEntity
  8
0
  6
Continuous
 62
     7
370
    25
100
AcDbPolyline
 90
       31
 70
   128
 43
0.0
 10
385.9609467873
 20
-20.4909819006
 10
387.8254754402
 20
-19.4980042587
 10
389.822366462
 20
-18.594858296
 10
391.9386692481
 20
-17.7874012608
 10
394.1606587629
 20
-17.0808698216
 10
396.4739245517
 20
-16.4798461061
 10
398.8634641982
 20
-15.9882279836
 10
401.3137806209
 20
-15.6092037863
 10
403.8089825775
 20
-15.3452316316
 10
406.3328877259
 20
-15.1980234802
 10
408.8691275725
 20
-15.1685340334
 10
411.4012536289
 20
-15.2569545417
 10
413.9128440858
 20
-15.4627115641
 10
416.3876103154
 20
-15.7844706873
 10
418.809502509
 20
-16.22014518
 10
421.1628137664
 20
-16.7669095259
 10
423.4322819611
 20
-17.4212177484
 10
425.6031887209
 20
-18.1788264076
 10
427.6614548825
 20
-19.0348221207
 10
429.5937317999
 20
-19.9836534269
 10
431.387487916
 20
-21.0191667912
 10
433.0310900339
 20
-22.134646512
 10
434.5138787632
 20
-23.3228582753
 10
435.82623765
 20
-24.5760960718
 10
436.9596555434
 20
-25.8862321735
 10
437.9067817934
 20
-27.2447698451
 10
438.6614739228
 20
-28.6428984485
 10
439.2188374635
 20
-30.0715505831
 10
439.5752576992
 20
-31.5214608917
 10
439.7284231077
 20
-32.9832261495
 10
439.7348103947
 20
-33.3494096618
  0
LWPOLYLINE
  5
144
330
1F
100
AcDbEntity
  8
0
  6
Continuous
 62
     7
370
    25
100
AcDbPolyline
 90
       11
 70
   128
 43
0.0
 10
376.7348103947
 20
-33.3494096618
 10
376.7922804366
 20
-32.2514530758
 10
377.0472800639
 20
-30.7944336472
 10
377.504542793
 20
-29.3539842185
 10
378.1611030997
 20
-27.9394466569
 10
379.0127029384
 20
-26.5599947815
 10
380.0538193574
 20
-25.2245748668
 10
381.2777003172
 20
-23.9418476235
 10
382.6764084801
 20
-22.72013203
 10
384.2408726871
 20
-21.5673513808
 10
385.9609467873
 20
-20.4909819006
  0
ENDSEC
  0
SECTION
  2
OBJECTS
  0
DICTIONARY
  5
C
330
0
100
AcDbDictionary
281
     1
  3
ACAD_GROUP
350
D
  3
ACAD_LAYOUT
350
1A
  3
ACAD_MLINESTYLE
350
17
  3
ACAD_PLOTSETTINGS
350
19
  3
ACAD_PLOTSTYLENAME
350
E
  3
ACAD_SCALELIST
350
47
  3
DWGPROPS
350
145
  0
DICTIONARY
  5
D
102
{ACAD_REACTORS
330
C
102
}
330
C
100
AcDbDictionary
281
     1
  0
DICTIONARY
  5
1A
102
{ACAD_REACTORS
330
C
102
}
330
C
100
AcDbDictionary
281
     1
  3
Layout1
350
1E
  3
Layout2
350
26
  3
Model
350
22
  0
DICTIONARY
  5
17
102
{ACAD_REACTORS
330
C
102
}
330
C
100
AcDbDictionary
281
     1
  3
Standard
350
18
  0
DICTIONARY
  5
19
102
{ACAD_REACTORS
330
C
102
}
330
C
100
AcDbDictionary
281
     1
  0
ACDBDICTIONARYWDFLT
  5
E
102
{ACAD_REACTORS
330
C
102
}
330
C
100
AcDbDictionary
281
     1
  3
Normal
350
F
100
AcDbDictionaryWithDefault
340
F
  0
DICTIONARY
  5
47
102
{ACAD_REACTORS
330
C
102
}
330
C
100
AcDbDictionary
281
     1
  3
A0
350
48
  3
A1
350
49
  3
A2
350
4A
  3
A3
350
4B
  3
A4
350
4C
  3
A5
350
4D
  3
A6
350
4E
  3
A7
350
4F
  3
A8
350
50
  3
A9
350
51
  3
B0
350
52
  3
B1
350
53
  3
B2
350
54
  3
B3
350
55
  3
B4
350
56
  3
B5
350
57
  3
B6
350
58
  3
B7
350
59
  3
B8
350
5A
  3
B9
350
5B
  3
C0
350
5C
  3
C1
350
5D
  3
C2
350
5E
  3
C3
350
5F
  3
C4
350
60
  3
C5
350
61
  3
C6
350
62
  3
C7
350
63
  3
C8
350
64
  3
C9
350
65
  3
D0
350
66
  3
D1
350
67
  3
D2
350
68
  0
XRECORD
  5
145
102
{ACAD_REACTORS
330
C
102
}
330
C
100
AcDbXrecord
280
     1
  1
DWGPROPS COOKIE
  2

  3

  4

  6

  7

  8
b.kav
  9

300
=
301
=
302
=
303
=
304
=
305
=
306
=
307
=
308
=
309
=
 40
0.0
 41
2459741.489478831
 42
2459741.489479085
  1

 90
        0
  0
LAYOUT
  5
1E
102
{ACAD_REACTORS
330
1A
102
}
330
1A
100
AcDbPlotSettings
  1

  2
none_device
  4

  6

 40
0.0
 41
0.0
 42
0.0
 43
0.0
 44
0.0
 45
0.0
 46
0.0
 47
0.0
 48
0.0
 49
0.0
140
0.0
141
0.0
142
1.0
143
1.0
 70
   688
 72
     1
 73
     0
 74
     5
  7

 75
    16
147
1.0
148
0.0
149
0.0
100
AcDbLayout
  1
Layout1
 70
     1
 71
     1
 10
0.0
 20
0.0
 11
420.0
 21
297.0
 12
0.0
 22
0.0
 32
0.0
 14
1.0000000000E+20
 24
1.0000000000E+20
 34
1.0000000000E+20
 15
-1.0000000000E+20
 25
-1.0000000000E+20
 35
-1.0000000000E+20
146
0.0
 13
0.0
 23
0.0
 33
0.0
 16
1.0
 26
0.0
 36
0.0
 17
0.0
 27
1.0
 37
0.0
 76
     0
330
1B
  0
LAYOUT
  5
26
102
{ACAD_REACTORS
330
1A
102
}
330
1A
100
AcDbPlotSettings
  1

  2
none_device
  4

  6

 40
0.0
 41
0.0
 42
0.0
 43
0.0
 44
0.0
 45
0.0
 46
0.0
 47
0.0
 48
0.0
 49
0.0
140
0.0
141
0.0
142
1.0
143
1.0
 70
   688
 72
     1
 73
     0
 74
     5
  7

 75
    16
147
1.0
148
0.0
149
0.0
100
AcDbLayout
  1
Layout2
 70
     1
 71
     2
 10
0.0
 20
0.0
 11
0.0
 21
0.0
 12
0.0
 22
0.0
 32
0.0
 14
0.0
 24
0.0
 34
0.0
 15
0.0
 25
0.0
 35
0.0
146
0.0
 13
0.0
 23
0.0
 33
0.0
 16
1.0
 26
0.0
 36
0.0
 17
0.0
 27
1.0
 37
0.0
 76
     0
330
23
  0
LAYOUT
  5
22
102
{ACAD_REACTORS
330
1A
102
}
330
1A
100
AcDbPlotSettings
  1

  2
none_device
  4
Letter_(8.50_x_11.00_Inches)
  6

 40
6.35
 41
6.35
 42
6.35000508
 43
6.35000508
 44
215.9
 45
279.4
 46
0.0
 47
0.0
 48
0.0
 49
0.0
140
0.0
141
0.0
142
1.0
143
1.0
 70
  1712
 72
     1
 73
     0
 74
     0
  7

 75
     0
147
1.0
148
0.0
149
0.0
100
AcDbLayout
  1
Model
 70
     1
 71
     0
 10
0.0
 20
0.0
 11
279.4
 21
215.9
 12
0.0
 22
0.0
 32
0.0
 14
0.0
 24
0.0
 34
0.0
 15
279.4
 25
215.9
 35
0.0
146
0.0
 13
0.0
 23
0.0
 33
0.0
 16
1.0
 26
0.0
 36
0.0
 17
0.0
 27
1.0
 37
0.0
 76
     0
330
1F
331
29
  0
MLINESTYLE
  5
18
102
{ACAD_REACTORS
330
17
102
}
330
17
100
AcDbMlineStyle
  2
Standard
 70
     0
  3

 62
   256
 51
90.0
 52
90.0
 71
     2
 49
0.5
 62
   256
  6
BYLAYER
 49
-0.5
 62
   256
  6
BYLAYER
  0
ACDBPLACEHOLDER
  5
F
102
{ACAD_REACTORS
330
E
102
}
330
E
  0
SCALE
  5
48
102
{ACAD_REACTORS
330
47
102
}
330
47
100
AcDbScale
 70
     0
300
1:1
140
1.0
141
1.0
290
     1
  0
SCALE
  5
49
102
{ACAD_REACTORS
330
47
102
}
330
47
100
AcDbScale
 70
     0
300
1:2
140
1.0
141
2.0
290
     0
  0
SCALE
  5
4A
102
{ACAD_REACTORS
330
47
102
}
330
47
100
AcDbScale
 70
     0
300
1:4
140
1.0
141
4.0
290
     0
  0
SCALE
  5
4B
102
{ACAD_REACTORS
330
47
102
}
330
47
100
AcDbScale
 70
     0
300
1:5
140
1.0
141
5.0
290
     0
  0
SCALE
  5
4C
102
{ACAD_REACTORS
330
47
102
}
330
47
100
AcDbScale
 70
     0
300
1:8
140
1.0
141
8.0
290
     0
  0
SCALE
  5
4D
102
{ACAD_REACTORS
330
47
102
}
330
47
100
AcDbScale
 70
     0
300
1:10
140
1.0
141
10.0
290
     0
  0
SCALE
  5
4E
102
{ACAD_REACTORS
330
47
102
}
330
47
100
AcDbScale
 70
     0
300
1:16
140
1.0
141
16.0
290
     0
  0
SCALE
  5
4F
102
{ACAD_REACTORS
330
47
102
}
330
47
100
AcDbScale
 70
     0
300
1:20
140
1.0
141
20.0
290
     0
  0
SCALE
  5
50
102
{ACAD_REACTORS
330
47
102
}
330
47
100
AcDbScale
 70
     0
300
1:30
140
1.0
141
30.0
290
     0
  0
SCALE
  5
51
102
{ACAD_REACTORS
330
47
102
}
330
47
100
AcDbScale
 70
     0
300
1:40
140
1.0
141
40.0
290
     0
  0
SCALE
  5
52
102
{ACAD_REACTORS
330
47
102
}
330
47
100
AcDbScale
 70
     0
300
1:50
140
1.0
141
50.0
290
     0
  0
SCALE
  5
53
102
{ACAD_REACTORS
330
47
102
}
330
47
100
AcDbScale
 70
     0
300
1:100
140
1.0
141
100.0
290
     0
  0
SCALE
  5
54
102
{ACAD_REACTORS
330
47
102
}
330
47
100
AcDbScale
 70
     0
300
2:1
140
2.0
141
1.0
290
     0
  0
SCALE
  5
55
102
{ACAD_REACTORS
330
47
102
}
330
47
100
AcDbScale
 70
     0
300
4:1
140
4.0
141
1.0
290
     0
  0
SCALE
  5
56
102
{ACAD_REACTORS
330
47
102
}
330
47
100
AcDbScale
 70
     0
300
8:1
140
8.0
141
1.0
290
     0
  0
SCALE
  5
57
102
{ACAD_REACTORS
330
47
102
}
330
47
100
AcDbScale
 70
     0
300
10:1
140
10.0
141
1.0
290
     0
  0
SCALE
  5
58
102
{ACAD_REACTORS
330
47
102
}
330
47
100
AcDbScale
 70
     0
300
100:1
140
100.0
141
1.0
290
     0
  0
SCALE
  5
59
102
{ACAD_REACTORS
330
47
102
}
330
47
100
AcDbScale
 70
     0
300
1/128" = 1'-0"
140
0.0078125
141
12.0
290
     0
  0
SCALE
  5
5A
102
{ACAD_REACTORS
330
47
102
}
330
47
100
AcDbScale
 70
     0
300
1/64" = 1'-0"
140
0.015625
141
12.0
290
     0
  0
SCALE
  5
5B
102
{ACAD_REACTORS
330
47
102
}
330
47
100
AcDbScale
 70
     0
300
1/32" = 1'-0"
140
0.03125
141
12.0
290
     0
  0
SCALE
  5
5C
102
{ACAD_REACTORS
330
47
102
}
330
47
100
AcDbScale
 70
     0
300
1/16" = 1'-0"
140
0.0625
141
12.0
290
     0
  0
SCALE
  5
5D
102
{ACAD_REACTORS
330
47
102
}
330
47
100
AcDbScale
 70
     0
300
3/32" = 1'-0"
140
0.09375
141
12.0
290
     0
  0
SCALE
  5
5E
102
{ACAD_REACTORS
330
47
102
}
330
47
100
AcDbScale
 70
     0
300
1/8" = 1'-0"
140
0.125
141
12.0
290
     0
  0
SCALE
  5
5F
102
{ACAD_REACTORS
330
47
102
}
330
47
100
AcDbScale
 70
     0
300
3/16" = 1'-0"
140
0.1875
141
12.0
290
     0
  0
SCALE
  5
60
102
{ACAD_REACTORS
330
47
102
}
330
47
100
AcDbScale
 70
     0
300
1/4" = 1'-0"
140
0.25
141
12.0
290
     0
  0
SCALE
  5
61
102
{ACAD_REACTORS
330
47
102
}
330
47
100
AcDbScale
 70
     0
300
3/8" = 1'-0"
140
0.375
141
12.0
290
     0
  0
SCALE
  5
62
102
{ACAD_REACTORS
330
47
102
}
330
47
100
AcDbScale
 70
     0
300
1/2" = 1'-0"
140
0.5
141
12.0
290
     0
  0
SCALE
  5
63
102
{ACAD_REACTORS
330
47
102
}
330
47
100
AcDbScale
 70
     0
300
3/4" = 1'-0"
140
0.75
141
12.0
290
     0
  0
SCALE
  5
64
102
{ACAD_REACTORS
330
47
102
}
330
47
100
AcDbScale
 70
     0
300
1" = 1'-0"
140
1.0
141
12.0
290
     0
  0
SCALE
  5
65
102
{ACAD_REACTORS
330
47
102
}
330
47
100
AcDbScale
 70
     0
300
1-1/2" = 1'-0"
140
1.5
141
12.0
290
     0
  0
SCALE
  5
66
102
{ACAD_REACTORS
330
47
102
}
330
47
100
AcDbScale
 70
     0
300
3" = 1'-0"
140
3.0
141
12.0
290
     0
  0
SCALE
  5
67
102
{ACAD_REACTORS
330
47
102
}
330
47
100
AcDbScale
 70
     0
300
6" = 1'-0"
140
6.0
141
12.0
290
     0
  0
SCALE
  5
68
102
{ACAD_REACTORS
330
47
102
}
330
47
100
AcDbScale
 70
     0
300
1'-0" = 1'-0"
140
12.0
141
12.0
290
     0
  0
ENDSEC
  0
EOF
